Song name
# A B C D E F G H I J K L M N O P Q R S T U V W X Y Z

Ricky Martin - Private Emotion Acoustic tab

-------------------------------------------------------------------------------
               Private Emotion (Acoustic variant) - Ricky Martin                
-------------------------------------------------------------------------------

Tabbed by: XCrusherX@gmail.com

Tuning: 1/2 step down

Note: This is how I play this song when it's only me and my acoustic guitar. 
I personally didn't like the "chords only" variants you usually find - 
with this version the verse and the post-chorus ("come to me...") sounds
a bit more melancholic, which I highly prefer when there are no other instruments in the mix. 

No solo part here - who is supposed to play that? ;)


Chords (standard tuning names):
Bm:         X24432
F#:         244322
A:          x02220
E:          022100
G:          355433
Dsus2\F#:   2x0230  (Found no official name for this)
Dsus2:      xx0230



Tabbed stuff first - lyrics and chorus chords afterwards. 


Intro:
|-----0---------0---------0--------0-----|
|--------3---------3---------3--------3--|
|---2---------2---------2---------2------|
|-0--------------------------------------| x3
|-----------4---------2---------2--------|
|----------------------------------------|


Verse: 

|-----0---------0---------0--------0-----|
|--------3---------3---------3--------3--|
|---2---------2---------2---------2------|
|-0--------------------------------------|
|-----------4---------2---------2--------|
|----------------------------------------|

|-----0---------0---------0--------0-----|
|--------3---------3---------3--------3--|
|---2---------2---------2---------2------|
|----------------------------------------|
|---------------------0---------0--------|
|-3---------3----------------------------|

2 times


Post-Chorus:
|-0---0---------0---------0--------0-----|
|-3------3---------3---------3--------3--|
|-2-2---------2---------2---------2------|
|-0--------------------------------------| x3
|-----------4---------2---------2--------|
|----------------------------------------|
              Come to me...       Come to

|-----0---------0---------0--------0-----|
|--------3---------3---------3--------3--|
|---2---------2---------2---------2------|
|-0--------------------------------------| 
|-----------4---------2---------2--------|
|----------------------------------------|
  me          Come to me...


Just remember them before you play along.

Here we go:

Verse:
Every endless night has a dawning day
Every darkest sky has a shining ray
And it shines on you, baby can't you see
You're the only one who can shine for me

       Bm       F#          A           E
It's a private emotion that fills you tonight
      G             Dsus2\F# 
And a silence falls between us
       G                 A
As the shadows steal the light
        Bm           F#
And wherever you may find it
    A           E
Wherever it may lead
         G       A
Let your private emotion come to me

Post-Chorus:
Come to me
Come to me
Come to me

Verse:
When your soul is tired and your heart is weak
Do you think of love as one way street
Well it runs both ways, open up your eyes
Can't you see me here, how can you deny

       Bm       F#          A           E
It's a private emotion that fills you tonight
      G             Dsus2\F# 
And a silence falls between us
       G                 A
As the shadows steal the light
        Bm           F#
And wherever you may find it
    A           E
Wherever it may lead
         G       A
Let your private emotion come to me

Post-Chorus:
Come to me
Come to me

Verse:
Every endless night has a dawning day
Every darkest sky has a shining ray
It takes a lot to laugh as your tears go by
But you can find me here till your tears run dry

       Bm       F#          A           E
It's a private emotion that fills you tonight
      G             Dsus2\F# 
And a silence falls between us
       G                 A
As the shadows steal the light
        Bm           F#
And wherever you may find it
    A           E
Wherever it may lead
         G        A
Let your private emotion come to me

Outro:

|-0---0---------0----|
|-3------3---------3-|
|-2-2---------2------|
|-0------------------|
|-----------4--------|
|--------------------|
                Let your

G        A
private emotion come to me

|-0---0---------0----|
|-3------3---------3-|
|-2-2---------2------|
|-0------------------|
|-----------4--------|
|--------------------|
                Let your

G        A
private emotion come to me

|-0---0---------0---------0--------0-----|
|-3------3---------3---------3--------3--|
|-2-2---------2---------2---------2------|
|-0--------------------------------------|
|-----------4-------------------0--------|
|---------------------3------------------|
              Come to me           Come to me


Dsus2
Tap to rate this tab
# A B C D E F G H I J K L M N O P Q R S T U V W X Y Z