Song name
# A B C D E F G H I J K L M N O P Q R S T U V W X Y Z

Ricky Nelson - String Along tab

Help us improve GuitareTab! Take a short survey!
Standard tuning

Intro (and main rhythm for song)

e----00-00----00-00----11-11----33-33--|
b----11-31----11-31----11-31----33-53--|
g----00-00----22-22----22-22----44-44--|
d----22-22----22-22----xx-xx----xx-xx--|
a--3-33-33--0-00-00----33-33----55-55--|
e--------------------1-11-11--3-33-33--|

Verse 1 (w/ intro progression)

String along, that's all i am is just your
String along, someone that you just seem to
Bring along, whenever you are all alone
And need some company you always turn to me

Verse 2 (w/intro progression)

String along, that's all i do is sorta
String along, you never seem to notice
I'm along, I just want you to want me too
Oh how i hope and pray
That you'll need me someday

Guitar solo (notes are right but at end he does a riff to switch from key of C to C# and 
little etchy on that part but I'll give it a shot)

e--------------------------------------|
b--5b8r5--------------6-8-10-8-5-8-5---|
g---------7-5--------------------------|
d-------------7~---7-5-----------------|
a--------------------------------------|
e---------------3----------------------|

e--------------------------------------|
b--5-5b8r5-------------6-8-10-8-5-8-5--|
g----------7-5-------------------------|
d--------------7~---7-5----------------|
a--------------------------------------|
e----------------3---------------------|

e-------------------------------------------|
b--5-5b-5b-5b----------------6-8-10-8-5-8-5-|
g--------------7-5--------------------------|
d------------------7~---7-5~----------------|
a-------------------------------------------|
e--------------------3----------------------|

e----------------------------------9b------|
b--5-5-5-8-5---------7-6-7-7-9-9-9----9----|
g------------7-----------------------------| (bit etchy on this part going to
d--------------7/6-6-----------------------|  try to figure out and repost
a------------------------------------------|  later)
e------------------------------------------|

Chord Progression now goes to C#,Bbm,F#,G# for rest of song
Hope you enjoy

Notation guide
b-bend
r-release
~-let note ring

The Rocnracer rocking out tabs to you!!!!!!!
Related for String Along tab