Song name
# A B C D E F G H I J K L M N O P Q R S T U V W X Y Z

Rico Blanco - Yugto tab

|-------------------------------------------------------------------------------
			     yugto-rico blanco
-------------------------------------------------------------------------------
Tabbed by:09283150081
Email:f_sario@yahoo.com
donated by SHC BSN lucena

GTrI(rico mambo)
GtRII(extra - Francis J.Q.S.)
Tuning:e b g d a E

Intro-
1.violin
|--------7-9-10-12-10h12p10-9~--------------------------------|
|-7-8-11------------------------------------------------------|
|-------------------------------------------------------------|
|-------------------------------------------------------------|
|-------------------------------------------------------------|
|-------------------------------------------------------------|
then
 cielo
|-------------------------------------------------------------|
|-------------------------------------------------------------|
|-------------------------------------------------------------|
|-------------------------------------------------------------|
|-------2-4-5-7-5h7p5-4~--------------------------------------|
|-2-3-6-------------------------------------------------------|
2.
GtrI(dist)
|-------------------------------------------------------------|
|-7-7-7-7-7/8-8-/5-5-/8-8-/5-5--7-7-7-7-7/8-8-/5-5-/8-8-/5-5--|
|-------------------------------------------------------------|
|-------------------------------------------------------------|
|-------------------------------------------------------------|
|-------------------------------------------------------------|

|-----------------------------------------|
|-7777-7/88-/55-/88-/55-7-7-7-7-7-7-7-----|
|-----------------------------------------|
|-----------------------------------------|
|-----------------------------------------|
|-----------------------------------------|

GtrII(clean/no dist or acoustic)
|---------------------------------------|
|---------------9-10-1010-10-10-12-10-9-|
|-11-11-1111-11-------------------------|
|---------------------------------------|
|---------------------------------------|
|---------------------------------------|
|---------------------------------------|

|-----------------------------------------9-99-9-99-9--------------------------|
|---------------9-10-1010-10-10--12-10-12------------12-10-10101010-10121012-9-|
|-11-11-1111-11----------------------------------------------------------------|
|------------------------------------------------------------------------------|
|------------------------------------------------------------------------------|
|------------------------------------------------------------------------------|
|------------------------------------------------------------------------------|


|---------------------------------------|
|---------------------------------------|
|-11-11-1111-11-1111-11-1111------------|
|---------------------------------------|
|---------------------------------------|
|---------------------------------------|
|---------------------------------------|
2.

GtrI
|-----------------------------------------------|
|-----------------------------------------------|
|-----------------------------------3333-4/666--|
|-4-44-44-44-44-44-7-9-4-44-44-44---xxxx-x-xxx--|2x
|-4-44-44-44-44-44-7-9-4-44-44-44---1111-2/444--|
|-2-22-22-22-22-22-5-7-2-22-22-22---------------|


Gtr
|----------------------------------------|
|----------------------------------------|
|----------------------------------------|
|-4-44-44-44-44-44-7-9-4-44-44-44-44-44--|2x
|-4-44-44-44-44-44-7-9-4-44-44-44-44-44--|
|-2-22-22-22-22-22-5-7-2-22-22-22-22-22--|

Verse-

Bass-F#-A-B

Gtr(pause)


Verse-
Bass-F#-A-B
GtrI
|----------------------------------------------------------------------|
|-----10~/------------------10~/--------------------10~/---------------|
|-----11~/------------------11~/--------------------11~/---------------|
|-----11~/------------------11~/--------------------11~/---------------|
|------9~/-------------------9~/---------------------9~/---------------|
|----------------------------------------------------------------------|

Refrain-

|---------------------------------------------------------------------------|
|---------------------------------------------------------------------------|
|-77777777-44444444----------3333-4/666--7777777-------------------66666666-|
|-77777777-44444444-44444444-xxxx-x-xxx--7777777-99999999-77777777-66666666-|
|-55555555-22222222-44444444-1111-2/444--5555555-99999999-77777777-44444444-|
|-------------------22222222---------------------77777777-55555555----------|


Chorus-09283150081
GtrI
|---------------------------------------------------------|
|---------------------------------------------------------|
|-77777777----------------------------77777777------------|
|-77777777-99999999-77777777-22222222-77777777-99999999---|
|-55555555-99999999-77777777-22222222-55555555-99999999---|
|----------77777777-55555555-00000000----------77777777---|
GtrII
|-121212-141414-171717----------------------121212----------------------|
|---------------------15151515151515--141414----------------------------|
|-------------------------------------------------13131313131313131313--|
|-----------------------------------------------------------------------|
|-----------------------------------------------------------------------|
|-----------------------------------------------------------------------|


|-121212-141414-171717---------------|
|---------------------15151515151515-|
|------------------------------------|
|------------------------------------|
|------------------------------------|
|------------------------------------|


do into 2.
Verse
bass(F# A-B)
GtrII(clean/no dist or acoustic)2x
|-----------------------------------------------------------------------------|
|---------------9-10-1010-10-10-12-10-9---------------9-10-1010-10-10-12-10-9-|
|-11-11-1111-11-------------------------11-11-1111-11-------------------------|
|-----------------------------------------------------------------------------|
|-----------------------------------------------------------------------------|
|-----------------------------------------------------------------------------|
|-----------------------------------------------------------------------------|

|-----------------------------------------9-99-9-99-9--------------------------|
|---------------9-10-1010-10-10--12-10-12------------12-10-10101010-10121012-9-|
|-11-11-1111-11----------------------------------------------------------------|
|------------------------------------------------------------------------------|
|------------------------------------------------------------------------------|
|------------------------------------------------------------------------------|
|------------------------------------------------------------------------------|

Do refrain and 
Chorus-
GtrI-GtrI
|-------------------------------------|
|-------------------------------------|
|-77777777----------------------------|
|-77777777-99999999-77777777-22222222-|2x
|-55555555-99999999-77777777-22222222-|
|----------77777777-55555555-00000000-|
GtrII
|-121212-141414-171717----------------------121212----------------------|
|---------------------15151515151515--141414----------------------------|
|-------------------------------------------------13131313131313131313--|
|-----------------------------------------------------------------------|
|-----------------------------------------------------------------------|
|-----------------------------------------------------------------------|



|-121212-141414-171717----------------------1212121212121212121212121212-|
|---------------------15151515151515--141414-----------------------------|
|------------------------------------------------------------------------|
|------------------------------------------------------------------------|
|------------------------------------------------------------------------|
|------------------------------------------------------------------------|

Instrumental-
1.
bass(F# A-B)Palm mute

 cielo(violin same as cielo's notes)
|-------------------------------------------------------------|
|-------------------------------------------------------------|
|-------------------------------------------------------------|
|-------------------------------------------------------------|
|------1-2-4-5-7-5h7p5p4~---2h4p2-1~-----2~-------------------|
|-2-3--------------------------------2-3----------------------|

|-------------------------------------------------------------|
|-------------------------------------------------------------|
|-------------------------------------------------------------|
|------------------/6-9---9-8---4h5p4-4------------4-5--------|
|-1-2-4---2-4-/9-5-----------------------2-4-5~---------------|
|-------------------------------------------------------------|

2.do 2x
tuwing hating gabi....
Piano =guitar
F#m                                    Bm
|-9-------9--------9--------9--------|-9-------9--------9--------9--------|
|----10-------10-------10-------10---|----11-------11-------11-------11---|
|--11--11---11--11---11--11---11--11-|--10--10---10--10---10--10---10--10-|
|------------------------------------|------------------------------------|
|------------------------------------|------------------------------------|
|------------------------------------|------------------------------------|
 A                                     C#
|-9-------9--------9--------9--------|-9-------9--------9--------9--------|
|----10-------10-------10-------10---|-----9-------9--------9--------9----|
|---9---9----9---9----9---9----9---9-|--10--10---10--10---10--10---10--10-|
|------------------------------------|------------------------------------|
|------------------------------------|------------------------------------|
|------------------------------------|------------------------------------|
F#m                                    Bm
|-9-------9--------9--------9--------|-9-------9--------9--------9--------|
|----10-------10-------10-------10---|----11-------11-------11-------11---|
|--11--11---11--11---11--11---11--11-|--10--10---10--10---10--10---10--10-|
|------------------------------------|------------------------------------|
|------------------------------------|------------------------------------|
|------------------------------------|------------------------------------|

3.optional
|------------------------------------|
|------------------------------------|
|------------------------------------|
|--4~--------------------------------|3x
|--4~--------------------------------|
|--2~--------------------------------|

4.
09283150081
GtrI
  F#m
|----------------------------------------------------------------------|
|-1010101010---13^r---1010101010--12~^-1010101010----------------------|
|-1111111111----------1111111111-------1111111111--11^r----------------|
|-1111111111----------1111111111-------1111111111-------44444444444444-|
|-9-99-9-99-----------9-99-9-99--------9-99-9-99--------44444444444444-|
|-------------------------------------------------------22222222222222-|
                                                        *********

GtrII
|----------------------------------------------------------------------|
|----------------------------------------------------------------------|
|----------------------------------------------------------------------|
|-4-44-4-4-44--------4-44-4-4-44------4-44-4-4-44------44444444444444--|
|-4-44-4-4-44--------4-44-4-4-44------4-44-4-4-44------44444444444444--|
|-2-22-2-2-22--------2-22-2-2-22------2-22-2-2-22------22222222222222--|
                                                       *********
bridge-
|---------------------------------------------------------------------------|
|---------------------------------------------------------------------------|
|-77777777-44444444----------3333-4/666--7777777-------------------66666666-|
|-77777777-44444444-44444444-xxxx-x-xxx--7777777-99999999-77777777-66666666-|
|-55555555-22222222-44444444-1111-2/444--5555555-99999999-77777777-44444444-|
|-------------------22222222---------------------77777777-55555555----------|


Chorus-

GtrI
|-------------------------------------------------------------------------|
|-------------------------------------------------------------------------|
|-77777777----------------------------77777777----------------------------|
|-77777777-99999999-77777777-22222222-77777777-99999999-77777777-22222222-|2x
|-55555555-99999999-77777777-22222222-55555555-99999999-77777777-22222222-|
|----------77777777-55555555-00000000----------77777777-55555555-00000000-|
GtrII
|-121212-141414-171717----------------------121212----------------------|
|---------------------15151515151515--141414----------------------------|
|-------------------------------------------------13131313131313131313--|
|-----------------------------------------------------------------------|2x
|-----------------------------------------------------------------------|
|-----------------------------------------------------------------------|


|-121212-141414-17171717171717171717-19191919191919-16161616161616------|
|-----------------------------------------------------------------------|
|-----------------------------------------------------------------------|
|-----------------------------------------------------------------------|
|-----------------------------------------------------------------------|
|-----------------------------------------------------------------------|

|-121212-141414-171717---------------19191919191919-16161616161616------|
|---------------------15151515151515------------------------------------|
|-----------------------------------------------------------------------|
|-----------------------------------------------------------------------|
|-----------------------------------------------------------------------|
|-----------------------------------------------------------------------|

outro-

|----------------------------------------------------------------x---|
|----------------------------------------------------------------x---|
|-------------------------------5+-------------------------------x---|
|-44444--5555--------44444-5555------44444--55555~---44444-55555-x---|
|-44444--5555--------44444-5555------44444--55555~---44444-55555-x---|
|-22222--3333--------22222-3333------22222--33333~---22222-33333-x---|

| /  slide up
| \  slide down
| h  hammer-on
| p  pull-off
| ~  vibrato
| +  harmonic
| x  Mute note


Lyrics-
Verse
Sa gitna ng kagubatan may ahas na hahalik

Tatawagin kang kaibigan na pinaka matalik

Pupulupot sa leeg mo't sisipsip ng iyong dugo

Ipapako ka sa krus kapag ikaw ay natuyo


Verse
Sa gitna ng kaguluhan may kumukulong bulkan

Di ma pigil ang yabang at sakdal na kasakiman

Susubukang angkinin ang lahat ng hindi kanya

Kung kaya kang paikutin tiyak paiikutin ka


refrain-
Ngunit hindi nila kayang baliin ang iyong loob

Ang pag-ibig na hawak mo'y hindi malulubog


Chorus-
Lumiyab ka...


Verse-
Sa gitna ng kadiliman may buwitreng nagmamasid

May magbabato ng putik ngunit walang mayayanig

Iiyak ang mga batang nahulugan ng candy

Laging mga problema sa iba'y sinisisi


verse-
Sa gitna ng kagubatan may ahas na hahalik

Itinuring mong kaibigan na pinaka matalik

Leeg mo'y pupuluputan dugo mo'y sisipsipin

Kapag wala ka nang pakinabang ang ending mo'y sa bangin



Ngunit hindi nila kayang baliin ang iyong loob

Ang pag-ibig na hawak mo'y hindi malulubog



Lumiyab ka...

Instrumental

Tuwing hating gabi maririnig mo ang huni

Ng mga kaluluwang naliligaw

Lahat ng pera sa mundo hindi kayang gawing ginto

Ang huwad na tao...



Ang mga tinig palakas ng palakas

Hanggang gumuho ang mga hadlang



Saksi ang langit sa lahat ng naganap

Saksi ang langit sa ikalawang yugto...



Lumiyab ka...


Tap to rate this tab
# A B C D E F G H I J K L M N O P Q R S T U V W X Y Z