Song name
# A B C D E F G H I J K L M N O P Q R S T U V W X Y Z

Rico Blanco - Ayuz tab

solo 1

e---8-----------------------------------------8---------------|
B-9---9--11-7---6-7-6--6-6-9-9h14---6-7-9---9---9-11-7--6-7-6-|
G-------------------------------------------------------------|
D-------------------------------------------------------------|
A-------------------------------------------------------------|
E-------------------------------------------------------------|

-----------------|
-12b14---10v-----|
-----------------| x2
-----------------|
-----------------|
-----------------|


solo 2

------------------------------------------------------|
------7--8-10-8-7-------------------------------------|
--7-9-------------7-----9---11-12--10-12---10-12-10---|  x2
------------------------------------------------------|
------------------------------------------------------|
------------------------------------------------------|

--10-x17----15-15--10-10--12--7-7-8-10-8-7---------|
---------------------------------------------------|
---------------------------------------------------|
---------------------------------------------------|
---------------------------------------------------|
---------------------------------------------------|

--10x17----15-15--10-10--12--7--8x8----------------|
---------------------------------------------------|
---------------------------------------------------|
---------------------------------------------------|
---------------------------------------------------|
---------------------------------------------------|

eto yung pinaka-unang tab na ginawa ko. hope you'll appreciate it
Tap to rate this tab
# A B C D E F G H I J K L M N O P Q R S T U V W X Y Z