Song name
# A B C D E F G H I J K L M N O P Q R S T U V W X Y Z

Rico Blanco - Yugto tab

YUGTO by Rico Blanco

INTRO 1: (ipagpilitan natin sa gitara.. hehe)

e|-----6h7-9h10/12--10-12p10-9~-|
B|-7h8--------------------------|
G|------------------------------|
D|------------------------------|
A|------------------------------|
E|------------------------------|

e|-------------------------|
B|-------------------------|
G|-------------------------|
D|-------------------------|
A|-----1h2-4h5/7--5h7p5\4--|
E|-2h3---------------------|


INTRO 2:

guitar 1:

e|--------------------7-------|
B|-7-7-7-7-9-10-10-10---10-9--|
G|----------------------------|
D|----------------------------|
A|----------------------------|
E|----------------------------|

e|--------------------7----7--|
B|-7-7-7-7-9-10-10-10---10----|
G|----------------------------|
D|----------------------------|
A|----------------------------|
E|----------------------------|

e|-9-9-9-9-7----------7-------|
B|-7-7-7-7-9-10-10-10---10-9--|
G|----------------------------|
D|----------------------------|
A|----------------------------|
E|----------------------------|

e|------------|
B|-7-7-7-7-7--|
G|------------|
D|------------|
A|------------|
E|------------|

guitar 2:

e|--------------------------|
B|-7-7-7-7-7h8-8\5-5/8-8\5--|
G|--------------------------| 4x (mas maganda kung bend
D|--------------------------|     imbis na slide)
A|--------------------------|
E|--------------------------|


INTRO 3, VERSE, CHORUS: tingnan nalang yung sa ibang pinasa.. accurate naman e

NITRAM
05-13-10
5:26PM
Tap to rate this tab
 
# A B C D E F G H I J K L M N O P Q R S T U V W X Y Z