Song name
# A B C D E F G H I J K L M N O P Q R S T U V W X Y Z

Rico Blanco - Ang Tangi Kong Pangarap tab

Ang Tangi Kong Pangarap
Rico Blanco
Tabbed by:Mcoy
follow me on twitter  @jasonworldpeace

Intro: A-B-D-A

Riff
E|-----7-5-------5-------7----------7-5-------|
B|---5-----5---5-------7---10-----6-----------|
G|-6---------6-------8--------8-7-------7-4-6-|
D|--------------------------------------------|
A|--------------------------------------------|
E|--------------------------------------------|


Verse I

A B
Ang tangi kong pangarap
D A
Ay ang 'di mawalay sa iyo
F#m B
Sa hirap, sa ginhawa
D E
Magkasama..


Verse II

A B
Anuman ang ating
D A
Harapin sa’ting munting lakbay
F#m B
Hawak ko ang 'yong kamay
D E
Hindi bibitaw


Chorus I

A Dm A Dm
Ibibigay ko ang lahat sa’yo
A Dm A Dm
Ang bawat awitin sa puso ko
F#m C#m
Langit sa mundo
F#m      C#m
Tuwing kapiling ka
F#m C#m D-E A-B-D-A
Manalo, matalo tayo pa ring dal’wa

Riff
E|-----7-5-------5-------7----------7-5-------|
B|---5-----5---5-------7---10-----6-----------|
G|-6---------6-------8--------8-7-------7-4-6-|
D|--------------------------------------------|
A|--------------------------------------------|
E|--------------------------------------------|


Verse III

A        B
Ang panahon may dulo
D        A
Ang pagmamahalan natin wala
F#m      B
Sa ating bawat laban
D        E
Hindi aatras


Chorus II

A        Dm      A Dm
Ibibigay ko ang lahat sa’yo
A        Dm      A Dm
Ang bawat pagtibok ng buhay ko
F#m C#m
Langit sa mundo
F#m      C#m
Tuwing kapiling ka
F#m C#m D-E A-B-D-A
Manalo, matalo tayo pa ring dal’wa

Riff
E|-----7-5-------5-------7----------7-5-------|
B|---5-----5---5-------7---10-----6-----------|
G|-6---------6-------8--------8-7-------7-4-6-|
D|--------------------------------------------|
A|--------------------------------------------|
E|--------------------------------------------|
Tap to rate this tab
 
# A B C D E F G H I J K L M N O P Q R S T U V W X Y Z