Guitaretab - guitar tabs
Song name
# A B C D E F G H I J K L M N O P Q R S T U V W X Y Z

Riddlin Kids - Here We Go Again tab

-------------------------------------------------------------------------------
			     Here we go again - Riddlin Kids
-------------------------------------------------------------------------------
Tabbed by: Zero is great man
Played with distortion

Tuning:EADGBe

Main: Riff
e|---------------------------|
B|---------------------------|
G|-5-5-5-5-------------------|
D|-5-5-5-5--7-7-7-7--5-5-5-5-|
A|-3-3-3-3--7-7-7-7--5-5-5-5-|
E|----------5-5-5-5--3-3-3-3-|
[ Tab from: http://www.guitaretab.com/r/riddlin-kids/121307.html ]
Intro/Fill
e|--------------------|
B|--------------------|
G|-5/12-10-9-5-7-10-9-|
D|-x/-x-x--x-x-x-x--x-|
A|-3/10-8--7-3-5-8--7-|
E|--------------------|
 
Intro Part 2:
e|---------|
B|---------|
G|-5/9-5/9-|
D|-x/x-x/x-|
A|-3/7-3/7-|
E|---------|

Pre-Chorus
e|-----------------------|
B|-----------------------|
G|-7-7-7-7--9-9-9-9------|
D|-7-7-7-7--9-9-9-9--7-7-|
A|-5-5-5-5--7-7-7-7--7-7-|
E|-------------------5-5-|

Bridge
e|------------------------------------|
B|------------------------------------|
G|------------------------------------|
D|-------------------7-7-7-7--5-5-5-5-|
A|-7-7-7-7--4-4-4-4--5-5-5-5--3-3-3-3-|
E|-5-5-5-5--2-2-2-2-------------------|

| /  slide up
| \  slide down
| h  hammer-on
| p  pull-off
| ~  vibrato
| +  harmonic
| x  Mute note

Hopes this helps you all out, the main riff is basically the verse,
the intro and the solo all in one. Enjoy!
====================================================================
Related for Here We Go Again tab
Advertisement will be closed in 10 seconds