Guitaretab - guitar tabs
Song name
# A B C D E F G H I J K L M N O P Q R S T U V W X Y Z

Riddlin Kids - Ship Jumper tab

-------------------------------------------------------------------------------
			     Ship Jumper - riddlin kids
-------------------------------------------------------------------------------
Tabbed by: TheTroy
Tuning: Standard

intro (x2)
e|---------------------------------------------------------------------------|
B|---------------------------------------------------------------------------|
G|-99999999--999-----------------------------------------------999-----------|
D|-99999999--xxx--11-11-11--11-11-11-11-11-11-11-11--99999999--xxx-----------|
A|-77777777--777--11-11-11--11-11-11-11-11-11-11-11--99999999--777-----------|
E|----------------9--9--9---9--9--9--9--9--9--9--9---77777777----------------|

e|---------------------------------------------------------------------------|
B|---------------------------------------------------------------------------|
G|---------------------------------------------------------------------------|
D|-777-77777777--------------------------------------------------------------|
A|-777-77777777--------------------------------------------------------------|
E|-555-55555555--------------------------------------------------------------|

verse (palm mute) (X2)
e|---------------------------------------------------------------------------|
B|---------------------------------------------------------------------------|
G|---------------------------------------------------------------------------|
D|-9999999999999999----------------------------------------------------------|
A|-7777777777777777-11111111111111111111111111111111-9999999999999999--------|
E|------------------9-9-9-9-9-9-9-9-9-9-9-9-9-9-9-9--7777777777777777--------|
[ Tab from: http://www.guitaretab.com/r/riddlin-kids/177230.html ]
e|---------------------------------------------------------------------------|
B|---------------------------------------------------------------------------|
G|---------------------------------------------------------------------------|
D|---------------------------------------------------------------------------|
A|-7777777777777777----------------------------------------------------------|
E|-5555555555555555----------------------------------------------------------|

pre-chorus
e|-----------------------------------|--|------------------------------------|
B|-----------------------------------|--|------------------------------------|
G|-----------------------------------|--|------------------------------------|
D|-4-444-444-446-7-7-7777777777777777|X2|-9999999999999999-------------------|
A|-4-444-444-446-7-7-7777777777777777|--|-9999999999999999-------------------|
E|-2-222-222-224-5-5-5555555555555555|--|-7777777777777777-------------------|

chorus guitar 1
e|---------------------------------------------------------------------------|
B|---------------------------------------------------------------------------|
G|---------------------------------------------------------------------------|
D|-2-2--4-4--7-7-------------------------------------------------------------|
A|-2-2--4-4--7-7-------------------------------------------------------------|
E|-0-0--2-2--5-5-------------------------------------------------------------|

chorus guitar 2
e|---------------------------------------------------------------------------|
B|---------------------------------------------------------------------------|
G|-14-13--14-13--14-13-14-13-11-13--14-13--14-13--14-13-14-13-11-9-----------|
D|-x--x---x--x---x--x--x--x--x--x---x--x---x--x---x--x--x--x--x--x-----------|
A|-12-11--12-11--12-11-12-11-9--11--12-11--12-11--12-11-12-11-9--7-----------|
E|---------------------------------------------------------------------------|

repeat intro 

repeat verse

repeat pre chorus

repeat chorus

bridge - intro

play pre chorus

play chorus

END 


| /  slide up
| \  slide down
| h  hammer-on
| p  pull-off
| ~  vibrato
| +  harmonic
| x  Mute note
===============================================================================
Related for Ship Jumper tab
Advertisement will be closed in 10 seconds