Song name
# A B C D E F G H I J K L M N O P Q R S T U V W X Y Z

Riddlin Kids - Never Live It Down tab

-------------------------------------------------------------------------------
			     never live it down - riddlin kids
-------------------------------------------------------------------------------
Tabbed by:TheTroy
Tuning: Standard

intro
e|---------------------------------------------------------------------------|
B|---------------------------------------------------------------------------|
G|-----6-----6------7-6-7-6-7-6----------------------------------------------|
D|-7-7---7-7---7-7--x-x-x-x-x-x----------------------------------------------|
A|-7-7---7-7---7-7--5-4-5-4-5-4----------------------------------------------|
E|-5-5---5-5---5-5-----------------------------------------------------------|

verse
e|---------------------------------------------------------------------------|
B|---------------------------------------------------------------------------|
G|---------------------------------7-7-7-7-7-7-7-7-7-7-7-7-7-7-7-7-----------|
D|-7-7-7-7-7-7-7-7-7-7-7-7-7-7-7-7-7-7-7-7-7-7-7-7-7-7-7-7-7-7-7-7-----------|
A|-7-7-7-7-7-7-7-7-7-7-7-7-7-7-7-7-5-5-5-5-5-5-5-5-5-5-5-5-5-5-5-5-----------|
E|-5-5-5-5-5-5-5-5-5-5-5-5-5-5-5-5-------------------------------------------|
   . . . . . . . . . . . . . . . . . . . . . . . . . . . . . . . .
e|---------------------------------------------------------------------------|
B|---------------------------------------------------------------------------|
G|-4-4-4-4-4-4-4-4-4-4-4-4-4-4-4-4-7-7-7-7-7-7-7-7-7-7-7-7-7-7-7-7-----------|
D|-4-4-4-4-4-4-4-4-4-4-4-4-4-4-4-4-7-7-7-7-7-7-7-7-7-7-7-7-7-7-7-7-----------|
A|-2-2-2-2-2-2-2-2-2-2-2-2-2-2-2-2-5-5-5-5-5-5-5-5-5-5-5-5-5-5-5-5-----------|
E|---------------------------------------------------------------------------|
   . . . . . . . . . . . . . . . . . . . . . . . . . . . . . . . . 

guitar 2 verse
e|---------------------------------------------------------------------------|
B|---------------------------------10-10-10-10-10-10-10-10-10-10-10-10-10----|
G|-9-9-9-9-9-9-9-9-9-9-9-9-9-9-9-9-------------------------------------------|
D|---------------------------------------------------------------------------|
A|---------------------------------------------------------------------------|
E|---------------------------------------------------------------------------|

e|---------------------------------------------------------------------------|
B|-10-10-10---------------------------------10-10-10-10-10-10-10-10-10-10----|
G|----------4-4-4-4-4-4-4-4-4-4-4-4-4-4-4-4----------------------------------|
D|---------------------------------------------------------------------------|
A|---------------------------------------------------------------------------|
E|---------------------------------------------------------------------------|

e|---------------------------------------------------------------------------|
B|-10-10-10-10-10-10---------------------------------------------------------|
G|---------------------------------------------------------------------------|
D|---------------------------------------------------------------------------|
A|---------------------------------------------------------------------------|
E|---------------------------------------------------------------------------|

Chorus
e|---------------------------------------------------------------------------|
B|---------------------------------------------------------------------------|
G|-----------------7-7-7-7-7-7-7-7-7-7-7-7-7-7-7-7---------------------------|
D|-7-7-7-7-7-7-7-7-7-7-7-7-7-7-7-7-7-7-7-7-7-7-7-7---------------------------|
A|-7-7-7-7-7-7-7-7-4-4-4-4-4-4-4-4-5-5-5-5-5-5-5-5-5-4-5-4-5-4-5-4-----------|
E|-5-5-5-5-5-5-5-5---------------------------------3-2-3-2-3-2-3-2-----------|

e|---------------------------------------------------------------------------|
B|---------------------------------------------------------------------------|
G|-----------------7-7-7-7-7-7-7-7-7-7-7-7-7-7-7-7---------------------------|
D|-7-7-7-7-7-7-7-7-7-7-7-7-7-7-7-7-7-7-7-7-7-7-7-7---------------------------|
A|-7-7-7-7-7-7-7-7-4-4-4-4-4-4-4-4-5-5-5-5-5-5-5-5-5-4-5-4-5-4-5-4-----------|
E|-5-5-5-5-5-5-5-5---------------------------------3-2-3-2-3-2-3-2-----------|

e|---------------------------------------------------------------------------|
B|---------------------------------------------------------------------------|
G|-----6-----6-----6-----6-----6-----6---------------------------------------|
D|-7-7---7-7---7-7---7-7---7-7---7-7-----------------------------------------|
A|-7-7---7-7---4-4---4-4---5-5---5-5---5-4-5-4-5-4-5-4-----------------------|
E|-5-5---5-5---------------------------3-2-3-2-3-2-3-2-----------------------|

e|---------------------------------------------------------------------------|
B|---------------------------------------------------------------------------|
G|-----------------7-7-7-7-7-7-7-7-7-7-7-7-7-7-7-7---------------------------|
D|-7-7-7-7-7-7-7-7-7-7-7-7-7-7-7-7-7-7-7-7-7-7-7-7---------------------------|
A|-7-7-7-7-7-7-7-7-4-4-4-4-4-4-4-4-5-5-5-5-5-5-5-5-5-4-5-4-5-4-5-4-----------|
E|-5-5-5-5-5-5-5-5---------------------------------3-2-3-2-3-2-3-2-----------|

repeat intro

repeat verse

bridge  (guitar one is playing the verse)
e|---------------------------------------------------------------------------|
B|---------------------------------------------------------------------------|
G|-9-9-7-7-6-6-7-7-9-9-7-7-6-6-7-7-9-9-7-7-6-6-7-7-9-9-7-7-6-6-7-7-----------|
D|---------------------------------------------------------------------------|
A|---------------------------------------------------------------------------|
E|---------------------------------------------------------------------------|

repat chorus

reeat intro

END


| /  slide up
| \  slide down
| h  hammer-on
| p  pull-off
| ~  vibrato
| +  harmonic
| x  Mute note
===============================================================================
Tap to rate this tab
# A B C D E F G H I J K L M N O P Q R S T U V W X Y Z