Song name
# A B C D E F G H I J K L M N O P Q R S T U V W X Y Z

Ride - Vapour Trail tab

Help us improve GuitareTab! Take a short survey!
-------------------------------------------------------------------------------
			     VAPOUR TRAIL - Ride
-------------------------------------------------------------------------------
Tabbed by: Andy D
Email: andyjamesdunn@gmail.com

Tuning: Standard


I've seen a couple of versions of this song, all of which sound fairly accurate but not 
right, I'm fairly happy these are the right chords though.

Apologies for the lack of timing guidance, I really didn't see the point since it's only 
chords strummed throughout.

Nice simple song to play, sounds amazing… for the full Nowhere sound you'll be needing a 
and (so I'm told) a compressor… I have neither, so improvise using a cheap chorus pedal 
a wah wah.


(Chords to be repeated throughout)
e|---0--------0---------0--------0--|
B|---0--------0---------0--------0--|
G|---9--------8---------9--------9--|
D|---9--------9---------7--------9--|
A|---x--------9---------0--------7--|
E|---9--------7---------0--------0--|

(Notes played at 2:06 by mini-solo after singing has stopped)
e|--------------------------------------|
B|--------------------------------------|
G|-------9-------9-------9-------9------|
D|-------9-------9-------9-------9------|
A|-------------------0-0-----7-7--------|
E|---9-9-----7-7------------------------|


Enjoy.

| /  slide up
| \  slide down
| h  hammer-on
| p  pull-off
| ~  vibrato
| +  harmonic
| x  Mute note
===============================================================================
Related for Vapour Trail tab