Song name
# A B C D E F G H I J K L M N O P Q R S T U V W X Y Z

Rides Again - Infected tab

standard tuning
album-you make us sick
bridge nine records
www.outbreakhc.com
www.myspace.com/outbreak


--------------------------------------------------|
--------------------------------------------------|
--------------------------------------------------|
-7-7-7-7-6-6-5-5--x4-7--7--7--7~------------------|
-7-7-7-7-6-6-5-5-----7--7--7--7~------------------|
-5-5-5-5-4-4-3-3-----5--5--5--5~------------------|


--------------------------------------------------|
--------------------------------------------------|
---------------------7-7-7-6-6-6-5-5--------------|
-7-7-7-6-6-6-5-5--x2-7-7-7-6-6-6-5-5--x2----------|
-7-7-7-6-6-6-5-5-----5-5-5-4-4-4-3-3--------------|
-5-5-5-4-4-4-3-3----------------------------------|


as its fading out
--------------------------------------------------|
--------------------------------------------------|
-13-----------------------------------------------|
--------------------------------------------------|
--------------------------------------------------|
--------------------------------------------------|
Tap to rate this tab
 
# A B C D E F G H I J K L M N O P Q R S T U V W X Y Z