Song name
# A B C D E F G H I J K L M N O P Q R S T U V W X Y Z

Rides Again - Wonder Why tab

Wonder Why - Rides Again
Guitar
Tuning: D A D G B e

Intro: A million times
e:------------:
B:------------:
G:------------:
D:------------:
A:--00000000--:
D:------------:

Verse:          Eventually:
e:------------: :------------:
B:------------: :------------:
G:------------: :------------:
D:------------: :------------:
A:--00000000--: :------------:
D:------------: :--00000000--:

Verse part 2:
e:--------------------:
B:--------------------:
G:--22------22----22--:
D:--22------22----22--:
A:--00------00----00--:
D:--------------------:  2x

e:--------------------:
B:--------------------:
G:--------------------:
D:--00------00----00--:
A:--00------00----00--:
D:--00------00----00--:  2x

1x
e:--------:
B:--------:
G:--------:
D:--3333--:
A:--3333--:
D:--3333--:

Pre-Chorus:
e:-----------------------------------------------------:
B:-----------------------------------------------------:
G:--222222222222222244444444444444442222222222222222---:
D:--2222222222222222444444444444444422222222222222223--:
A:--0000000000000000222222222222222200000000000000003--:
D:--------------------------------------------------3--:
  PM................................................

Chorus 1: 2x
e:------------------------------------:
B:------------------------------------:
G:--22222222222222222222222222222222--:
D:--22222222222222222222222222222222--:
A:--00000000000000000000000000000000--:
D:------------------------------------:

e:---------------------------------------:
B:---------------------------------------:
G:---------------------------------------:
D:---------------------------------------:
A:-----------------------------------12--:
D:--0-0-6-0-0-8-0-0-0-0-10-0-0-8-0-0-----:

e:---------------------------------------:
B:---------------------------------------:
G:---------------------------------------:
D:---------------------------------------:
A:----------------------6-0-8-0-10-0-12--:
D:--0-0-6-0-0-8-0-0-0-0------------------:

Verse part 1
Verse part 2
Prechorus
Chorus: 1 TIME THEN:

Chorus 2:
e:------------------------------------:
B:------------------------------------:
G:--22222222222222222222222222222222--:
D:--22222222222222222222222222222222--:
A:--00000000000000000000000000000000--:
D:------------------------------------:

e:---------------------------------------:
B:---------------------------------------:
G:---------------------------------------:
D:---------------------------------------:
A:-----------------------------------12--:
D:--0-0-6-0-0-8-0-0-0-0-10-0-0-8-0-0-----:

e:--------------------------------:
B:--------------------------------:
G:--------------------------------:
D:----------------------3~--2~----:
A:----------------------3~--2~----:
D:--0-0-6-0-0-8-0-0-0-0-3~--2~----:

Bridge:

e:--------------------------------------------:
B:--------------------------------------------:
G:--2~-----------2~-----------2~--------------:
D:--2~---3~-2~---2~---3~-2~---2~---3~-2~--0~--:
A:--0~---3~-2~---0~---3~-2~---0~---3~-2~--0~--:
D:-------3~-2~--------3~-2~--------3~-2~--0~--:

Breakdown: (Nathan doesnt do just eigth notes, ull have to figure out the strumming 
on your own, too hard to tab)
e:----------------------------------------------------:
B:----------------------------------------------------:
G:--2222222222222222----------------2222222222222222--:
D:--222222222222222200000000000000002222222222222222--:
A:--000000000000000000000000000000000000000000000000--:
D:------------------0000000000000000------------------:

Build Up: 4x
e:---------------------------------------:
B:---------------------------------------:
G:---------------------------------------:
D:---------------------------------------:
A:-----------------------------------12--:
D:--0-0-6-0-0-8-0-0-0-0-10-0-0-8-0-0-----:
  PM. . . . . . . . . . .  . . . . . .

Chorus 1

e:--------------------------------------:
B:--------------------------------------:
G:--222222222222222244444444444444442~--:
D:--222222222222222244444444444444442~--:
A:--000000000000000022222222222222220~--:
D:--------------------------------------:
Tap to rate this tab
 
# A B C D E F G H I J K L M N O P Q R S T U V W X Y Z