Song name
# A B C D E F G H I J K L M N O P Q R S T U V W X Y Z

Riding Alone For Thousands Of Miles - She Was My Lighthouse tab

----------------------------------------------------------------------------        
       She Was My Lighthouse - Riding Alone for Thousands of Miles

----------------------------------------------------------------------------

Tabbed by: Xeros

Tuning: Half-Step Down

Basic guitar theme that begins at 0:35. Played with distortion and tremelo effect.



               (played twice)
eb|--------------------------|---------------------------------------------|
Bb|--------------------------|---------------------------------------------|
F#|--------------------------|---------------------------------------------|
Db|---2----------------------|---2---------------2-------------------------|
G#|-0-----3-------2-----3----|-0-----3-------2---3-------------------------|
Eb|---------1---3-----5------|---------1---3-----5-------------------------|


(variation played when violin      ( ends with)
and cellos enter)

eb|---------------------------|--------------------------------------------|
Bb|---------------------------|--------------------------------------------|
F#|---------------------------|--------------------------------------------|
Db|---2-----------------------|---2--------------2-------------------------|
G#|-0-----3-------2-----3-2---|-0----3-------2---3-------------------------|
Eb|---------1---3-----5-------|--------1---3-----5-------------------------|
Tap to rate this tab
# A B C D E F G H I J K L M N O P Q R S T U V W X Y Z