Song name
# A B C D E F G H I J K L M N O P Q R S T U V W X Y Z

Rie Fu - Decay tab

This is my first tab so please bare with me. I tried my best to tab this song and it
me a while and there might be some mistakes, so whoever thinks there should be a correction
be my guest to alter this tab. iF If I get further updates on the song i'll be sure to 
it, but this is basically all i have for now, enjoy! - Alex Nguyen
"Capo 1st fret"

Intro (x8)<-Im not sure how many times you repeat it.
E----------------------0-----------2------3-----------2---------------------|
B--------3-----------2---2-------3---3----3--3------3---3-------------------|
G------4---4-------2-------2---2-------2--2----2--2-------2-----------------|
D----5-------5---------------0----------------------------------------------|
A---------------0-----------------------------------------------------------|
E--3------------------------------------------------------------------------|


E--------------------------------------------------------------------------|
B------------3-3------------3-3--------------------------------3-3---------|
G-------2-2--2-2-------2-2--2-2-------2-2--4-4------------2-2--2-2---------|
D--5-5--2-2--0-0--5-5--2-2--0-0--5-5--2-2--4-4--4-4--5-5--2-2--0-0---------|
A--5-5--0-0-------5-5--0-0-------5-5--0-0--2-2--4-4--5-5--0-0--------------|
E--3-3------------3-3------------3-3------------2-4--3-3-------------------|

Repeat Intro (x3)
E----------------------0-----------2------3-----------2---------------------|
B--------3-----------2---2-------3---3----3--3------3---3-------------------|
G------4---4-------2-------2---2-------2--2----2--2-------2-----------------|
D----5-------5---------------0----------------------------------------------|
A---------------0-----------------------------------------------------------|
E--3------------------------------------------------------------------------|

The end, I think.... O_o
Tap to rate this tab
# A B C D E F G H I J K L M N O P Q R S T U V W X Y Z