Song name
# A B C D E F G H I J K L M N O P Q R S T U V W X Y Z

Rie Fu - Pre Love Song tab

-------------------------------------------------------------------------------
                             Pre-Love Song - Rie fu
-------------------------------------------------------------------------------
Tabbed by: Danang Dwi Putra
E-mail: rieharmony@live.com
Tuning: Standard


For opening play this tab for 2 times. Also in lyric "There's girls whose..." play for 3 times.
But for lyric "If I could rewind the time 'till last Friday" play for 4 times

e|----7-----7------0-------0--h5--------------------------------------------------|
B|----7-----7--------------7-----7------------------------------------------------|
G|--0-----0--------6----------------6---------------------------------------------|
D|--------------0-------0---------------------------------------------------------|
A|--------------------------------------------------------------------------------|
E|--------------------------------------------------------------------------------|


For lyric "I tell you I can feel your pain ... "

e|-------------------------------------------------------------------------------|
B|------5---5-------5---5----------5---5-------5---5-----------------------------|
G|----7---7---7---7---7----------6---6---6---6---6-------------------------------|
D|--6-----------6--------------7-----------7-------------------------------------|
A|-------------------------------------------------------------------------------|
E|-------------------------------------------------------------------------------|

e|-------------------------------------------------------------------------------|
B|------5---5-------5---5----------5---5-----------------------------------------|
G|----7---7---7---7---7----------6---6---6---------------------------------------|
D|--6-----------6--------------7-----------7-------------------------------------|
A|---------------------------------------------0---------------------------------|
E|-------------------------------------------------------------------------------|

For lyric "So I sing ..." and after "Every day" until " .. toward you"

e|---------------------------------------------------------------------2---------|
B|------7---------6---------5---------------------------------------3-----3------|
G|----7---------6---------5-----------2--------------------2------2---------2----|
D|--0---------5---------4-----------1-----------2--------2------0----------------|
A|--------------------------------2-----------2--------0-------------------------|
E|------------------------------------------0------------------------------------|

Just for lyric "Every day"

e|----2---3------------------------------------------------------------------|
B|---------------------------------------------------------------------------|
G|---------------------------------------------------------------------------|
D|---------------------------------------------------------------------------|
A|---------------------------------------------------------------------------|
E|---------------------------------------------------------------------------|

Just repeat from beginning

And for ending play for 4 times

e|----7-----7------0-------0--h5--------------------------------------------------|
B|----7-----7--------------7-----7------------------------------------------------|
G|--0-----0--------6----------------6---------------------------------------------|
D|--------------0-------0---------------------------------------------------------|
A|--------------------------------------------------------------------------------|
E|--------------------------------------------------------------------------------|

Last play

e|--5------------------------------------------------------------------------|
B|--7------------------------------------------------------------------------|
G|--6------------------------------------------------------------------------|
D|--0------------------------------------------------------------------------|
A|---------------------------------------------------------------------------|
E|---------------------------------------------------------------------------|

************************************

| /   slide up
| \   slide down
| h   hammer-on
| p   pull-off
| ~   vibrato
| +   harmonic
| x   Mute note
| b   Bend
| pb  Pre-bend
| br  Bend release
| pbr Pre-bend release
| brb Bend release bend

************************************
Tap to rate this tab
 
# A B C D E F G H I J K L M N O P Q R S T U V W X Y Z