Song name
# A B C D E F G H I J K L M N O P Q R S T U V W X Y Z

Rie Tanaka - Fields Of Hope tab

-------------------------------------------------------------------------------
			     FIELDS OF HOPE - Rie Tanaka
-------------------------------------------------------------------------------
Tabbed by: Dodgy Haro
Email: magneticrose@tpg.com.au

Tuning: Standard

1st Phrase  [REPEAT TWICE]

E------------------------------------------------|
B------------------------------------------------|
G--------------------------0---------------------|
D--------------------4--------------------4------|
A----------0----5---------------0----5-----------|
E-----3------------------------------------------|

2nd Phrase  [REPEAT TWICE]

E-------------------------------------------------|
B-------------------------------------------------|
G--------------------------0----------------------|
D---------------2----4---------------2----4-------|
A----------2--------------------2-----------------|
E-----0-------------------------------------------|

3rd Phrase  [REPEAT TWICE]

E-------------------------------------------------|
B--------------------0-----1--------------0-------|
G---------------0--------------------0------------|
D----------0--------------------0-----------------|
A-----3-------------------------------------------|
E-------------------------------------------------|


Final Phrase

E--------------------------3---------2------------|
B---------------3-------------------------0-------|
G----------2---------2----------2-----------------|
D-----0-------------------------------------------|
A-------------------------------------------------|
E-------------------------------------------------|

E--------------------2-----0---------2----3-------|
B---------------3---------------------------------|
G----------2--------------------2-----------------|
D-----0-------------------------------------------|
A-------------------------------------------------|
E-------------------------------------------------|


************************************

| /   slide up
| \   slide down
| h   hammer-on
| p   pull-off
| ~   vibrato
| +   harmonic
| x   Mute note
| b   Bend
| pb  Pre-bend
| br  Bend release
| pbr Pre-bend release
| brb Bend release bend

************************************
Tap to rate this tab
# A B C D E F G H I J K L M N O P Q R S T U V W X Y Z