Guitaretab - guitar tabs
Song name
# A B C D E F G H I J K L M N O P Q R S T U V W X Y Z

Rifles At Recess - Dance On Your Grave tab

Well, this is ALMOST all of it, im not houdiinii so yeah

i missed a few things, when there is open strumming, just listen and youll get it



*= Speed pick       inside brackets is harmonic

INTRO
D8-7-------------------|
A8-7-------------------|
D8-7-------------------|
G-------4-5-4-2-4-1----|
B-----5----------------|
e----------------------|

Riff one, guitar1

D----------------------------------------------------------------------------------------------|
A----------7*-5*-8*-7*-5*-----------------------------------------7*-5*-8*-7*-5*---------------|
D5*-7*-8*----------------1*-3*-5*-3*-1*-3*-0*----5*-7*-8*-------------------1*-3*-5*-3*-5/7/5--|
G----------------------------------------------------------------------------------------------|2X
B----------------------------------------------------------------------------------------------|
e----------------------------------------------------------------------------------------------|


Riff 2, guitar one
D---------------------------------------------------------------------------|
A1*-3*-5*-7*-5*-1*-3*-5*-7*-5*-1*-3*-5*-7*-5*-0*-4*-0*-4--------------------|
D---------------------------------------------------------------------------|
G---------------------------------------------------------------------------|
B---------------------------------------------------------------------------|
e---------------------------------------------------------------------------|

Riff one repeat

Riff 2 Repeat

Riff 3
D-------------------------------------------------------------|
A-------------------------------------------------------------|
D---------15*-14*-12*-10*-9*-7*-------------------------------|
G14*-12*---------------------------7-9-10-9---------10--------|
B------------------------------------------------8h10p8-------|
e-------------------------------------------------------------|


Riff 4
D-0x-0x-0x-0x-0x-0x-0x---------8/3--------------|
A-------5𧯠-------------------8/3-3-5---------|    4X
D-------------------7𧈈-7-5--8/3-5-7----------|
G-----------------------------------------5-7---|
B-----------------------------------------------|
e-----------------------------------------------|


Riff 5
D0-0-0--0-0-0------|     few times
A0-0-0--0-0-0------|
D0-0-0--0-0-0------|
G------------------|
B------------------|
E------------------|


Riff 6
D----------------------------------------------------------------------------------|
A----8-7-5-7-8-7-------------------------------------------------------------------|
D8-7-------------------------------10-9-7-9-10-9-----------------------------------|
G---------------------4x ---10-9-------------------- 2x ------------10-9-7-9-10-9--|2x
B--------------------------------------------------------------11-10---------------|
e----------------------------------------------------------------------------------|


D0-0-0--0-0-0------|     few times MORE
A0-0-0--0-0-0------|
D0-0-0--0-0-0------|
G------------------|
B------------------|
E------------------|

D0-6-6x-6x-3x--------|2x
A0-6-6x-6x-3x--------|2x
D0-6-6x-6x-3x--------|2x
G--------------------|
B--------------------|
E--------------------|


D0---------------------------------------------------------------------------------------|
A0-8-10-7-8-5-7-3-1-10-12-8-10-7-8-5-3-12-13-10-12-8-10-7-8-5----------------------------|
D0-----------------5-3----------------------7-5----------------------------7--------(8)--|
G0-----------------5-3----------------------7-5----------------------------7-7-8-7-------|few times
B----------------------------------------------------------------------------------------|
E----------------------------------------------------------------------------------------|

D------------------------------------------------------------|
A------------------------------------------------------------|
D7*-5*-3*-5*-7*-5*-3*-5*-3*-2*-3*-5*-3*-2*-3-----------------|
G------------------------------------------------------------|
B------------------------------------------------------------|
E------------------------------------------------------------|


D------------------------------------------------------------------------------------------------------------|
A------------------------------------------------------------------------------------------------------------|
D------------------------------------------------------------------------------------------------------------|
G1*-3*-5*-7*-8*-10*-12*-13*15*-13*-12*-10*-8*-7*-5*-3*-1*-3*-5*-7*-8*-10*-12*-13*15*-13*-12*-10*-8*-7*-5*-3--|
B------------------------------------------------------------------------------------------------------------|
E------------------------------------------------------------------------------------------------------------|


D----------------------------------------------------------------------------------------------------0--|
A----------------------------------------------------------------------------------------------------0--|
D----------------------------------------------------------------------------------------------------0--|
G15/13/12h13-13/12/10h12-12/10/8h10-10/8/7h8-8/7/5h7-7/5/3h5-5/3/1h3-3/1p0h1----------------------------|
B-------------------------------------------------------------------------------------------------------|
E-------------------------------------------------------------------------------------------------------|
[ Tab from: http://www.guitaretab.com/r/rifles-at-recess/52759.html ]

Lots of open strum core palm muting
Riff 10
D0x-0x-------0x-0x-0x-0x------0x-------0x------0x-0x-----0x-0x-0x-0x-4*-1*-3*-1*0x--|0x
A0x-0x-5p0-0x-0x-0x-0x-8p0-0x-6p0-0x6p0-0x-0x5p0-0x-0x-0x-0x------------------------|
D0x-0x-------0x-0x-0x-0x------0x-------0x-----0x-0x------0x-0x-0x-0x----------------| 2x then
G-----------------------------------------------------------------------------------|
B-----------------------------------------------------------------------------------|
E-----------------------------------------------------------------------------------|


Crazy fill




Repeat  riff 10


D
A
D0-0x-0
G9-0x-8
B6-0x-5
E

More of riff 10


D4x-1x-3x--|1x
A4x-1x-3x--|1x
D4x-1x-3x--|1x
G
B
e

something crazy
you figure it out im not hoodinii


GUITAR OHTER
Intro
D8-7
A8-77-8-7-5-7-4
D8-7-7
G
B
E

Riff one
D------------------------------------------------------------------------------------------------------|
A----------7*-5*-8*-7*-5*-----------------------------------------7*-5*-8*-7*-5*---------------/2/3/2--|
D5*-7*-8*----------------1*-3*-5*-3*-1*-3*-0*----5*-7*-8*-------------------1*-3*-5*-3*----------------|
G------------------------------------------------------------------------------------------------------|2X
B------------------------------------------------------------------------------------------------------|
e------------------------------------------------------------------------------------------------------|

riff 2
D------------------------------------------------------------------|
A------------------------------------------------------------------|
D0*-3*-2*-3*-5*-3*-0*-3*-2*-3*-5*-3*-0*-3*-2*-3*-5*-3*-2*-3*-2*-3--|
G------------------------------------------------------------------|
B------------------------------------------------------------------|
e------------------------------------------------------------------|


repeat riff one

repeat riff two

riff 3
D------------------------------------------------------------|
A------------------------------------------------------------|
D-----8-7-5-3-2-0-0------------------------------------------|
G7-5-------------------------------------10-9-7h9p7-6--------|
B-----------------------------------10-8---------------------|
e------------------------------------------------------------|

riff 4
D-0x-0x-0x-0x-0x-0x-0x---------8/3--------------|
A-------5𧯠-------------------8/3-3-5---------|    4X
D-------------------7𧈈-7-5--8/3-5-7----------|
G-----------------------------------------5-7---|
B-----------------------------------------------|
e-----------------------------------------------|
Harmonization/ solo with third guitar over this, you fugure it out im not hoodinii
More open strumming

D-----------------------------------|
A----8-7-5-7-8-7   X8 --------------|
D8-7--------------------------------|
G-----------------------------(9)/0-|
B-----------------------------------|
E-----------------------------------|


More open strumming

D--------2x------|3x
A--------2x------|3x
D0*-6*-2x--------|3x
G----------------|
B----------------|
e----------------|

d-------------------|
a5\1/5\3/7/12-------|
d7\3/7\5/x/x--------|
g---------/9/15-----|
b-------------------|
e-------------------|


D---------------------------------------|
A---------------------------------------|
D7*----3*----5*----7*-7-8-7- -----------|
G---9-7---3-5---5-7---------------------|(7)
B---------------------------------------|
e---------------------------------------|


D-----------------------|
A1*-3*-5*-7*-8----------|
D-----------------------|
G-----------------------|    X4
B-----------------------|
e-----------------------|

D------------------------------------------------------------------------------------------------------0--|
A1*-3*-5*-3*-5*-7*-8*-1*-3*-5*-7*-8*-1*-3*-5*-3*-5*-7*-8-1*-3*-5*-3*-5*-7*-8--0---------------------------|
D------------------------------------------------------------------------------------------------------0--|
G---------------------------------------------------------------------------------------------------------|
B---------------------------------------------------------------------------------------------------------|
e---------------------------------------------------------------------------------------------------------|


More palm mute stums

D4*-1*-3*-1-------|
A4*-1*-3*-1-------|
D4*-1*-3*-1-------|
G-----------------|
B-----------------|
e-----------------|

This part comes in after the first guitar does it  twice after the crazy fill

D0x-0x-------0x-0x-0x-0x------0x-------0x------0x-0x-----0x-0x-0x-0x-4*-1*-3*-1*0x--|0x
A0x-0x-5p0-0x-0x-0x-0x-8p0-0x-6p0-0x6p0-0x-0x5p0-0x-0x-0x-0x------------------------|
D0x-0x-------0x-0x-0x-0x------0x-------0x-----0x-0x------0x-0x-0x-0x----------------| 2x then
G-----------------------------------------------------------------------------------|
B-----------------------------------------------------------------------------------|
E-----------------------------------------------------------------------------------|


D--------|
A--------|
D--------|
G12-11-
B-9---8--------|      (corresponds with the other   one below)
e--------------|

D
A
D0-0x-0
G9-0x-8
B6-0x-5
E


More riff ten

Then more crazy stuff I don't wanna figure out, it shouldn't be too hard, I got most of the hard stuff hey?
Well enjoy this
Related for Dance On Your Grave tab