Guitaretab - guitar tabs
Song name
# A B C D E F G H I J K L M N O P Q R S T U V W X Y Z

Rifles At Recess - Sporus In The Theatre tab

Guitar One

 step down
*= Speed pick
~=Let ring
(whatever is inside this =harmonic)
X=palm mute
some of this stuff is played over and over again, so just
figure out how many time you need to play it


Riff one
D----------------------|
A3*-7*-3*-2*-6*--------|
D----------------------|
G----------------------|
B----------------------|
E----------------------|

Riff two
D0-8-7-0~-8~-7~-----|
A0-8-7-0~-8~-7~-----|
D0-8-7-0~-8~-7~-----|
G-------------------|
B-------------------|
e-------------------|

riff three
D0-------------------------------8---------------7----------------|
A0-------------------------------8---------------7----------------|
D0------------------10*-9*-7*-8--------------7-9*-10*-9-----------|
G---9*-10*-9*-7*----------------9*-10*-9*-------------------------|
B-----------------------------------------------------------------|
e-----------------------------------------------------------------|


riff four
D8~-10~-0*x-10*x-8*x-10*x-0*x-10*x-8*x-5h7p5-3h5p2-|
A8~-10~--------------------------------------------|
D8~-10~--------------------------------------------|
G--------------------------------------------------|
B--------------------------------------------------|
e--------------------------------------------------|

some crazy shit
riff 5
D0~-9~-
A0~-9~-
D0~-9~-
G--------|   some times
B--------|
e--------|

riff 6
some thing over top of before riff
something like this
few times
D--------------------------------------------------------------------------------------------------------|
A--------------------------------------------------------------------------------------------------------|
D----9-9-10-9-----9-9-10-9----9-9-10-9----9-9-10-9-------9-9-10-9----9-9-10-9------9-9-10-9----9-9-10-9--|
G0-0-0---------0-0-0--------8-8-8--------8-8-8--------10-10-10-------10-10-10-----8-8-8--------8-8-8-----|
B--------------------------------------------------------------------------------------------------------|
e--------------------------------------------------------------------------------------------------------|


Riff 7
D---------------------|
A---------------------|
D---------------------|
G12*-10*-9*-7*--------|
B---------------------|
E---------------------|
more
D0-------------------------------8---------------7----------------|
A0-------------------------------8---------------7----------------|
D0------------------10*-9*-7*-8--------------7-9*-10*-9-----------|
G---9*-10*-9*-7*----------------9*-10*-9*-------------------------|
B-----------------------------------------------------------------|
e-----------------------------------------------------------------|

D8~-10~-0*x-10*x-8*x-10*x-0*x-10*x-8------------------|x
A8~-10~-----------------------------------------------|
D8~-10~-----------------------------------------------|
G-----------------------------------------------------|
B-----------------------------------------------------|
e-----------------------------------------------------|

after a bit the rhythm changes, just figure it out-

D8~-10~-8~-10~-8~-10~-7---------|
A8~-10~-8~-10~-8~-10~-7---------|
D8~-10~-8~-10~-8~-10~-7---------|
G-------------------------------|
B-------------------------------|
e-------------------------------|

lots of open strumming palm mutes and this over top
[ Tab from: http://www.guitaretab.com/r/rifles-at-recess/56679.html ]
D--------------------------------------------------------------------------------------------------------|
A--------------------------------------------------------------------------------------------------------|
D----9-9-10-9-----9-9-10-9----9-9-10-9----9-9-10-9-------9-9-10-9----9-9-10-9------9-9-10-9----9-9-10-9--|
G0-0-0---------0-0-0--------8-8-8--------8-8-8--------10-10-10-------10-10-10-----8-8-8--------8-8-8-----|
B--------------------------------------------------------------------------------------------------------|
e--------------------------------------------------------------------------------------------------------|


something weird at the end.


Guitar two

Riff one
D--------------------|
A5*-8*-5*-4*-7-------|
D--------------------|
G--------------------|
B--------------------|
e--------------------|

riff 2
D0----------------------------8-------------7---------------|
A0----------------8*-7*-5*-8-------------7-7*-8*-7----------|
D0-7*-8*-7*-5*------------8-7*-8*-7*-7----------------------|
G-----------------------------------------------------------|
B-----------------------------------------------------------|
e-----------------------------------------------------------|


D8~-10~-0------------10-------------8--------------------------------------|
A8~-10~-0------------10-------------8--------------------------------------|
D8~-10~-0-7*-8*7*-10-7*-8*-7*-8-7*-8*-7*-10*-8*-7*-8-----------------------|
G--------------------------------------------------------------------------|
B----------- --------------------------------------------------------------|
e--------------------------------------------------------------------------|

crazy ness


D0-8-0-8-0-----------------8--------------------0-----------------8--|
A0-8-0-8-0-----------------8--------------------0-----------------8--|
D0-8-0-8-0-7*-8*-7*-5*-8-10*-8*-10*-8*-0-7*-8*-7*-5*-8-10*-8*-7*-5*--|
G--------------------------------------------------------------------|
B--------------------------------------------------------------------|
e--------------------------------------------------------------------|


more
D0-------------------------------8---------------7----------------|
A0-------------------------------8---------------7----------------|
D0------------------10*-9*-7*-8--------------7-9*-10*-9-----------|
G---9*-10*-9*-7*----------------9*-10*-9*-------------------------|
B-----------------------------------------------------------------|
e-----------------------------------------------------------------|

D8~-10~-0------------10-------------8--------------------------------------|
A8~-10~-0------------10-------------8--------------------------------------|
D8~-10~-0-7*-8*7*-10-7*-8*-7*-8-7*-8*-7*-10*-8*-7*-8-----------------------|
G--------------------------------------------------------------------------|
B----------- --------------------------------------------------------------|
e--------------------------------------------------------------------------|

D-------------------------------------------------------------------|
A-------------------------------------------------------------------|
D12*-13*-12*-12*-13*-12*-12*-13*-12*-15*-13*-12---------------------|
G-------------------------------------------------------------------|
B-------------------------------------------------------------------|
e-------------------------------------------------------------------|


D8~-10~-8~-10~-8~-10~-0------------|
A8~-10~-8~-10~-8~-10~-0------------|
D8~-10~-8~-10~-8~-10~-0------------|
G----------------------------------|
B----------------------------------|
e----------------------------------|

lots of open strums.

Then this over top aswell

D--------------------------------------------------------------------------------------------------------|
A--------------------------------------------------------------------------------------------------------|
D----9-9-10-9-----9-9-10-9----9-9-10-9----9-9-10-9-------9-9-10-9----9-9-10-9------9-9-10-9----9-9-10-9--|
G0-0-0---------0-0-0--------8-8-8--------8-8-8--------10-10-10-------10-10-10-----8-8-8--------8-8-8-----|
B--------------------------------------------------------------------------------------------------------|
e--------------------------------------------------------------------------------------------------------|


something weird at the end
Related for Sporus In The Theatre tab