Song name
# A B C D E F G H I J K L M N O P Q R S T U V W X Y Z

Rifles At Recess - My Apologies To The Walking Dead tab

Band:  Rifles at Recess
Album: To Whisper in Tongues
Song:  My Apologies to the Walking Dead



.  - palm mute           /  - slide up to
  - slide down to       ~  - vibrato
h  - hammer on           b  - Bend
p  - pull off            Suffixes for bend
t  - tap                 f  - full bend    h - half bend
ph - pinched harmonic    q  - quarter bend t - tap bend
*  - see comment         ^  - Hold bend    r release bend
x  - Stuccatto           ~  - vibrato bend
,  - slight palm mute    () - ghost note, sustained note
"  - tremolo note        <> - Trill


Tuning C F Bb Eb G C (down two whole steps)
Riff 1
 Gtr 1a
|-----------------------------------------|
|-----------------------------------------|
|-----------------------------------------|
|---------------------------------------9-|
|---10-12-9---10-12-9---10-12-9---10-12---|
|-00-----0--00-----0--00-----0--00-----0--|
| ..     .  ..     .  ..     .  ..     .
|Gtr 1b
|-------------------------------------|
|-------------------------------------|
|-------------------------------------|
|-------------------------------------|
|---10-12-9---10-12-9---7-9-6---7-9-6-|
|-00-----0--00-----0--00---0--00---0--|
  ..     .  ..     .  ..   .  ..   .
Riff 1
 Gtr 2a
|-------------------------------------|
|-------------------------------------|
|-----------------------------------7-|
|---8-10-7---8-10-7---8-10-7---8-10---|
|-------------------------------------|
|-00----0--00----0--00----0--00----0--|
| ..    .  ..    .  ..    .  ..    .
|Gtr 2b
|-----------------------------------|
|-----------------------------------|
|-----------------------------------|
|---8-10-7---8-10-7---7-9-6---7-9-6-|
|-----------------------------------|
|-00----0--00----0--00---0--00---0--|
| ..    .  ..    .  ..   .  ..   .

Riff 2
 Gtr 1
|----------------------------------------------|
|----------------------------------------------|
|----------------------------------------------|
|-2---------------------10---------------------|
|-2-9h10-12-10p9-10-9p7-10-9h10-12-10p9-10-9p7-|
|-0---------------------8----------------------|
|Gtr 1 cont
|------------------------------------------------|
|------------------------------------------------|
|------------------------------------------------|
|-12---------------------10------12-10p9-10-9h10-|
|-12-9h10-12-10p9-10-9p7-10-9h10-----------------|
|-10---------------------8-----------------------|
Riff 2
 Gtr 2
|-------------------|
|-------------------|
|-------------------|
|-2~--10~--12~--10~-|
|-2~--10~--12~--10~-|
|-0~--8-~--10~--8-~-|

Riff 3    end  .a    .b
|-------------|-----|-------|
|-------------|-----|-------|
|---------"---|-----|-------|
|-"-"-"---5---|-9p7-|-12p10-|
|-3-5-7-------|-----|-------|
|-----------0-|-----|-------|
            .
Fill 1
|---------------------------------------------|
|---------------------------------------------|
|------------------------9h10p9-7h9p7-6h7p6---|
|--------------------2-2--------------------2-|
|-9h10p9-7h9p7-6h7p6-2-2--------------------2-|
|--------------------0-0--------------------0-|
                     . .                    .
Fill 2
|-----------|
|-------ph--|
|-10-9--10~-|
|-x--x------|
|-8--7------|
|---0-------|
    .

Riff 4
 Gtr 1
|---------------------------------|
|---------------------------------|
|-------------ph--------------ph--|
|-243524------12~-2435--------12~-|
|-243524-7910-----2435-10-9-7-----|
|-021302----------0213------------|
| ...... .. .     ....
|Gtr 2
|---------------------------------|
|---------------------------------|
|-------------ph-------10-9-7-ph--|
|-243524------12~-2435--------12~-|
|-243524-7910-----2435------------|
|-021302----------0213------------|
  ...... .. .     ....

Fill 3
|--------------|
|--------------|
|--------------|
|-542542-2-2-2-|
|-542542-2-2-2-|
|-320320-0-0-0-|
  ...... . . .

Riff 5
|---------------------------------|
|-------------------ph--ph--ph-ph-|
|-------------------10b-10b-8b-7b-|
|-"-"""-"""-"-"-"""---------------|
|-71096-79710-71096---------------|
|---------------------------------|

Riff 6
 Gtr 1
|--------------|
|--------------|
|-"--""--"--""-|
|-9--79--5--45-|
|--------------|
|--------------|
|Gtr 2
|--------------|
|-"--""--"--""-|
|-9--79--5--45-|
|--------------|
|--------------|
|--------------|

Riff 7
 Gtr 1
|----------------------------|
|----------------------------|
|----------------------------|
|-2-""-"-"-"""-10-""-"-"-"""-|
|-2-7910121097-10-7910121097-|
|-0------------8-------------|
|Gtr 1 cont             end  .a   .b
|---------------------------|----|------|
|---------------------------|----|------|
|---------------------------|----|------|
|-12-""-"-"-"""-10-""-"-"-"-|-""-|--"-"-|
|-12-7910121097-10-79101210-|-97-|-1214-|
|-10------------8-----------|----|------|
 Gtr 2
|---------------------|
|---------------------|
|---"""""""-5-"""""""-|
|-2-2457542-5-2457542-|
|-2---------3---------|
|-0-------------------|
|Gtr 2 cont
|---------------------|
|---------------------|
|-7-"""""""-5-"""""""-|
|-7-2457542-5-2457542-|
|-5---------3---------|
|---------------------|

Riff 8
|------------------------------|
|------------------------------|
|------------------------------|
|-10----------12---------------|
|-10--10-9h10-12---12-10h12p10-|
|-8--8--------10-10------------|
|    .            .
|end .a                    .b
|-------------------------|------------------------|
|-------------------------|------------------------|
|-------------------------|------------ph----------|
|-2-----------------------|-9----------9p7---------|
|-2-22222222-9h10-12p10p9-|-9-99999999-----10p9h10-|
|-0-00000000--------------|-7-77777777-------------|
    ........                  ........

Riff 9      end .a      .b
|--------------|-------|-------|
|--------------|-------|-------|
|--------------|-------|-------|
|-2------------|-7p5p4-|-9p7p5-|
|-2-2222222222-|-------|-------|
|-0-0000000000-|-------|-------|
|.c Gtr 1  |Gtr 2
|----------|----------|
|----------|----------|
|-------ph-|-------ph-|
|-9-7-5-5~-|-7-5-4-4~-|
|----------|----------|
|--0-0-----|--0-0-----|
   . .        . .

Fill 4
|----|
|----|
|----|
|-22-|
|-22-|
|-00-|
  ..

Riff 10
 .a         .b         .c
|----------|----------|---|
|----------|----------|---|
|----------|----------|---|
|--"""""""-|--"""""""-|---|
|-"2357532-|-"4579754-|-"-|
|-0--------|-2--------|-0-|

Riff 11
 Gtr 1
|---------|----------|
|---------|----------|
|---------|----------|
|--"""-"--|--"""-"---|
|-"232"2"-|-"232"2""-|
|-0---5-3-|-0---5-32-|
|Gtr 2
|---------|----------|
|---------|----------|
|-ph""-"--|-ph""-"---|
|--232"2"-|--232"2""-|
|-"---5-3-|-"---5-32-|
|-0-------|-0--------|

Fill 5
|--------|
|--------|
|--------|
|-999-2~-|
|-999-2~-|
|-777-0~-|

Riff 12
 Gtr 1
|------------------"---|
|-"--"--"--"-"-"-"-7-"-|
|-9-11-12-11-9-7-9---9-|
|----------------------|
|----------------------|
|----------------------|
|Gtr 2
|------------|
|------------|
|-5~--7~-----|
|-5~--7~--2~-|
|-3~--5~--2~-|
|---------0~-|

Riff 13
|-----------------------------------|
|-----------------------------------|
|-------------------------------4/5-|
|-22-22-22-22-22-22-22-22-22-22-x-x-|
|-22-22-22-22-22-22-22-22-22-22-2/3-|
|-00-00-00-00-00-00-00-00-00-00-----|
| .. .. .. .. .. .. .. .. .. ..
|cont
|-------------------------------|
|-------------------------------|
|-55-55-55-55-55-55-55-55-55-55-|
|-55-55-55-55-55-55-55-55-55-55-|
|-33-33-33-33-33-33-33-33-33-33-|
|-------------------------------|
| .. .. .. .. .. .. .. .. .. ..
|cont
|-----------------------------------|
|-------------------------------ph--|
|-44-44-44-44-44-44-44-44-44-44-2h4-|
|-44-44-44-44-44-44-44-44-44-44-----|
|-22-22-22-22-22-22-22-22-22-22-----|
|-----------------------------------|
  .. .. .. .. .. .. .. .. .. ..

Song Order:
	Riff 1 x 2
	Riff 2 x 2
	Riff 1 x 2
	Riff 3 x 4
	Fill 1
	Fill 2
	Riff 4 x 2
	Fill 3
	Riff 5 x 4
	Riff 6 x 2
	Riff 7 x 2
	Riff 8 x 2
	Riff 9 x 5
	Fill 4 x 3
	Riff 10 x 9 (a x 4, b x 2, a x4, c)
	Riff 11 x 4
	Riff 8 x 2
	Fill 5
	Riff 12 x 5 (Gtr 2 x 3)
	Riff 13 x 2
	Riff 7 x 2 (end .a, and .b)
	End

Tap to rate this tab
# A B C D E F G H I J K L M N O P Q R S T U V W X Y Z