Rifoki - Sperm Donor tab

Artist: RIFOKI (Steve Aoki and Bob Rifo)
Song: Sperm Donor
http://www.myspace.com/rifoki

Main Riff:

e|----------------------------------------------|
B|----------------------------------------------|
G|-14-14-14-14/9-9-9-9/10/13-13-13/9/10-10-10/9-|
D|----------------------------------------------|
A|----------------------------------------------|
E|----------------------------------------------|

Chorus:
    
e|-------------------------------|
B|-------------------------------|
G|---------------------12--11----|
D|-7-7-7-7-7-7-8---7-7-12--11-10-|
A|-7-7-7-7-7-7-8---7-7-10--9--10-|
E|-5-5-5-5-5-5-6---5-5--------8--|
              |_|      |_____|

/ = Slide
|___| = Might be tremelo picked
            
Tap to rate this tab
 
# A B C D E F G H I J K L M N O P Q R S T U V W X Y Z