Song name
# A B C D E F G H I J K L M N O P Q R S T U V W X Y Z

Right Away Great Captain - Love Come And Save Me tab

-----------------------------------------------------------------------------
	           Love, Come and Save Me - Right Away! Great Captain
-----------------------------------------------------------------------------
Tabbed by: Joey Metts
Email:joey.metts@hotmail.com

Tuning: Standard (EADGBe)
Capo on 7th Fret
Easiest if finger-picking using D minor F and G chord positioning

e------1-----------0--------------------------3----------|
B-------3-----------1----1----1----------------0---------|
G---2-------2---2-----0h2----2------0-------------0------|
D--0-0-----0---3-3----------3---0h2----------------------|
A------------------------------------------2-------------|
E-----------------------------------------3-3---3--------|

h = hammer-on

My interpretation, sounds right to me.
Tap to rate this tab
 
# A B C D E F G H I J K L M N O P Q R S T U V W X Y Z