Right Away Great Captain - Captain Im Fine And I Thank You For Everything tab

drop d tuning

verse
e|---------------------------------------------------------|
b|---------------------------------------------------------|
g|---------------------------------------------------------|
d|------------0-----0-----0--------------0------0-----0----|
a|-------------0-----0-----0--------------0------0-----0---|
d|--12-11-7-5---5-----5--------9-7-5-0-----0------0--------|

chorus
e|-----------------------------------------------------------|
b|-----------------------------------------------------------|
g|-----------------------------------------------------------|
d|-------0------0------0------0------0------0------0------0--|
a|--------0------0------0------0------0------0------0------0-|
d|--0h2----2------2/5----5------0------0------0------0-------|

ending
e|----------------|
b|----------------|
g|----------------|
d|----------------|
a|----------------|
d|-12-11-7-0------|


repeat each one as needed.
if you have any questions email me at r3djumpsuit@live.com
Tap to rate this tab
 
# A B C D E F G H I J K L M N O P Q R S T U V W X Y Z