Song name
# A B C D E F G H I J K L M N O P Q R S T U V W X Y Z

Right Away Great Captain - Gasoline Family tab

Alright well this is Gasoline Family by Right Away Great Captain. Amazing stuff. 
you guys would probably
like kevin devine but im not here to advertise. the other tab on here was good but 
theres a much easier
way to play it. this is my first tab so it may be a bit sloppy.

Drop D


|------------------------------------|
|------------------------------------|
|------------------------------------|
|-----12------7----------------------|
|---7-------9-----7-5----9-7---------|
|--7-------7-----5------7------------|



|----------x--x--------x-x---------------|
|----------x--x--------x-x---------------|
|----------x--x--------x-x---------------|
|-----12--12-11------7-x-x---------------|
|---9------9--9----9---9-7----7-5----9-7-|
|--9-------x--x---7----7-7---5------7----|
           ^  v        ^ v



|------------------------------------|
|------------------------------------|
|------------------------------------|
|-----12-----------------0-----------|
|---9------9-7---7-5----0------------|
|--9------7-----5------0-------------|



|------------------------------------|
|------------------------------------|
|------------------------------------|
|-----12-----------------------------|
|---9------9-7----7-5----9-7---------|
|--9------7------5------7------------|



|------------------------------------|
|------------------------------------|
|------------------------------------|
|-----12--12-----7-------------------|
|---9----------9-----7-5----9-7------|
|--9--------7-7-----5------7---------|



|------------------------------------|
|------------------------------------|
|------------------------------------|
|-----12-----------------------------|
|---9-------9-7----7-5----9-7--------|
|--9-------7------5------7-----------|



|------------------------------------|
|------------------------------------|
|------------------------------------|
|-----12--12--------7-------------0--|
|---9----9--9--9-7-9-9-7---7-5---0---|
|--9----------7-----------5-----0----|



|------------------------------------|
|------------------------------------|
|------------------------------------|
|-----12-----------------------------|
|---9------9-7----7-5----9-7---------|
|--9------7------5------7------------|



|------------------------------------|
|------------------------------------|
|------------------------------------|
|-----12-11-9-------7----------------|
|---9-----------9-7--7---7-5----9-7--|
|--9-----------7--------5------7-----|



|------------------------------------|
|------------------------------------|
|------------------------------------|
|-----12-------------------0---------|
|---9-------9-7----7-5----0----------|
|--9-------7------5------0-----------|



|--------------------------------------|
|--------------------------------------|
|--------------------------------------|
|-----12------7------------------------|
|---9-------9-------7-5----9-7--7-7-9-7|
|--9-------7-------5------7------------|



|------------------------------------------------------------------|
|------------------------------------------------------------------|
|------------------------------------------------------------------|
|----12---12-12-11---7---------------------------------------------|
|---9--9-9----------9-9-9-7-9-7--7-5----5-7-5--9-7----7-7-9-7------|
|--9----9----------7---7--------5----5-5------7----7-7-------------|



|---------------------------------------------------------|
|---------------------------------------------------------|
|---------------------------------------------------------|
|----12---12-11-9---------7-------------------------------|
|---9--9-9---------9-7---7-9-7--7-5---7-5---9-7--7-7-9-7--|
|--9----9---------7---7-7------5---5-5---5-7----7--------9|


Alright thats it. enjoy. any problems email me at r3djumpsuit@live.com
Tap to rate this tab
 
# A B C D E F G H I J K L M N O P Q R S T U V W X Y Z