Song name
# A B C D E F G H I J K L M N O P Q R S T U V W X Y Z

Right Away Great Captain - Like Lions Do tab

-------------------------------------------------------------------------------
                             LIKE LIONS DO - Right Away, Great Captain!
-------------------------------------------------------------------------------

| /  Slide up
| \  Slide down
| !  Let Ring

  Intro.
 e|---------------------------------------|-------------------------------------|
Bb|---------0-----------------------------|---------0---------------------------|
 G|-----0-2---2---------------------------|-----0-2---2-------------------------|
 D|---3-----------3---------3-5/7\5-3-----|---3-------------------3-5/7\5-3-----|
 A|-5-----------5-------3-5-----------5-3-|-5-----------5-3---3-5-----------5-3-|
 E|------------------6--------------------|-----------------6-------------------|

D5!                 C5!           Bb5!
I've been throwing up over this ledge for the last 7 weeks
     G5!                  A5!         Bb5!
and you've been throwing history to Hell.

And I've been writing almost every day that I've been gone
do you still remember how my beard once felt?
I've been eating seaweed from a whale named 'Emily'
she could swallow me, or help me swallow pride.

|---------------------|---------------------|
|---------------------|---------------------|
|---------------------|---------------------|  We wait under the tow like diamonds - x2
|-----0-------0-------|-----0-------0---7---|  Like diamonds do.
|---------------------|-----------------8---|
|-3-------5-------6---|-3-------5-------6---|

|---------------------------------------|-------------------------------------|
|---------0-----------------------------|---------0---------------------------|
|-----0-2---2---------------------------|-----0-2---2-------------------------|
|---3-----------3---------3-5/7\5-3-----|---3-----------3-------3-5/7\5-3-----|
|-5-----------5-------3-5-----------5-3-|-5-----------5-----3-5-----------5-3-|
|------------------6--------------------|-----------------6-------------------|

I've been watching you look at a locket from your mother
or perhaps it's from a girl you don't speak of.
Do you miss her when she's sleeping? Do you find it hard to eat when
everything reminds you of her stilly ghost?
So to captains of my captain, how can I become a captain?
Get the strength I need to pull this one around

        G5!            A5!         Bb5!
I will wait under the tow like lions - x2
Like lions do!

|-----------------|-----------------|-----------------|-----------------|
|-----------------|-----------------|-----------------|-----------------|
|-7-7-7-7-7-7-7-7-|-5-5-5-5-5-5-5-5-|-2-2-2-2-2-2-2-2-|-----------------|
|-7-7-7-7-7-7-7-7-|-5-5-5-5-5-5-5-5-|-3-3-3-3-3-3-3-3-|-5-5-5-5-5-5-5-5-| (Once without
|-5-5-5-5-5-5-5-5-|-3-3-3-3-3-3-3-3-|-1-1-1-1-1-1-1-1-|-5-5-5-5-5-5-5-5-|   Vocals)
|-----------------|-----------------|-----------------|-3-3-3-3-3-3-3-3-|

And I walk this ship of golden brown
you sit back, covered up in sounds
That don't come from my lips
you know they don't come from my lips

And you can try to break the silence
while you're making love with violence
To my flesh and blood a traitor
Oh my flesh and blood are traitors to you now

Oh my god, what am, I doing here?
Oh my flesh and blood are traitors to you now

Oh my god, what am, I doing here?
What am I doing here?
Tap to rate this tab
# A B C D E F G H I J K L M N O P Q R S T U V W X Y Z