Song name
# A B C D E F G H I J K L M N O P Q R S T U V W X Y Z

Right Away Great Captain - Oh Deceiver tab

-------------------------------------------------------------------------------
                             OH, DECEIVER - Right Away, Great Captain!
-------------------------------------------------------------------------------

| /  Slide up
| \  Slide down

Intro.
e|---------------|---------------|
B|---------------|---------------|
G|---------------|---------------|
D|-0-----0-------|-0-----0-------|
A|---4-------4---|---2-------2---|
E|-5---5---5-----|-0---0---0-----|

Verse – Same as Intro. – x4

Chorus
|-----------------------|-----------------------|
|-----------------------|-----------------------|
|-----------------------|-----------------------|
|---------------2-------|-----------------------|
|---0---2---4-------4---|---2---2/4---4---4\2---|
|-2---2---2---2---2-----|-0---0-----0---0-------|

Bridge – Same as Intro. (No Vocals) – x1
Verse – Same as Intro. – x4
Chorus – x1
Verse – Same as Intro. – x1
Bridge – Same as Intro. (No Vocals) – x1

|---------------|
|---------------|
|---------------|
|-0-----0-------|
|---4-------4---|
|-5---5---5-----|

Oh, deceiver, was it worth it?
Can you still sleep, the way I used to?
And oh, brother, our blood was so thick.
Can you still smile, into my daughter’s eyes?

I could just sink,
into this sea, forever.

Oh, inside, you feel like needles.
Woman how could you, do this to me?
Oh, captain, who is your captain?
Who do you cry to? Is it okay to cry?

Sometimes?
Sometimes.

Sometimes.
Tap to rate this tab
# A B C D E F G H I J K L M N O P Q R S T U V W X Y Z