Song name
# A B C D E F G H I J K L M N O P Q R S T U V W X Y Z

Right Away Great Captain - Memories On A Deck Part 2 tab

-------------------------------------------------------------------------------
                             MEMORIES ON A DECK, PT. 2 - Right Away, Great Captain!
-------------------------------------------------------------------------------

| h  Hammer-on

Capo = 4th Fret (Relative)

Verse
e|-------------------------|-------------------------|
B|-------------------------|-----0-----0-------------|
G|-----2-----2-----2-----2-|----2-----2------2-----2-|
D|----0-----0-----0-----0--|-0h2---0h2------0-----0--|  x2
A|-0h2---0h2---0h2---0h2---|-------------0h2---0h2---|
E|-------------------------|-------------------------|

Chorus
|------------------|-------------------------|
|------------------|-------------------------|
|----0---0---0---0-|-----2-----2-----2-----2-|
|--0---0---2---0---|----0-----0-----0-----0--|
|---2---2---2---2--|-0h2---0h2---0h2---0h2---|
|-3---3---0---3----|-------------------------|

                              1st Time Ending            2nd Time Ending
Verse 2
|-------------------------| |-------------------------| |------------------------|
|-------------------------| |-----0-----0-------------| |-----0-----0------------|
|-----2-----2-----2-----2-| |----2-----2------2-----2-| |----2-----2-------2---2-|
|----0-----0-----0-----0--| |-0h2---0h2------0-----0--| |-0h2---0h2---------0-0--|
|-0h2---0h2---0h2---0h2---| |-------------0h2---0h2---| |-------------0h2-2--2---|
|-------------------------| |-------------------------| |------------------------|

Chorus - x2
                              1st Time Ending            2nd Time Ending
Verse 3
|-------------------------| |-------------------------| |-------------------------|
|-------------------------| |-----0-----0-------------| |-----0-----0-------------|
|-----2-----2-----2-----2-| |----2-----2------2-----2-| |----2-----2------2-----0-|
|----0-----0-----0-----0--| |-0h2---0h2------0-----0--| |-0h2---0h2------0-----0--|
|-0h2---0h2---0h2---0h2---| |-------------0h2---0h2---| |-------------0h2---0h2---|
|-------------------------| |-------------------------| |-------------------------|

Chorus - x2

Outro.
|-------------------|
|------0-------0----|
|---------2---------|
|-0h2-2--0-0h2------|
|---------------2---|
|-------------------|

Well, I can see a white blouse hanging on a window sill, a naked body on the bed.
I can see a candle-burning, wax-dripping, Bible-burning
woman that I once called friend.

Don't you bleed out an apology, you'll always be a liar to me.

Well, I can see a black-faced woman with a baby saying
'maybe you should stay down here'.
I can see a shit-faced brother that I covered for
what must have been the last 10 years.

I could tell she wasn't lying, you were lying with a lion up there.
I could tell you that I saw you, but I couldn't make it up the stairs.

Well, I can see a heart-sized hole inside the ocean
where I'm pondering a midnight swim.
I can see a heart-sized hole inside the bottle
where I'm pondering a midnight swim.

I could tell you I was dying, but you wouldn't know for 3 more years.
I could tell you I was dying, but you wouldn't know for 3 more years.
Tap to rate this tab
# A B C D E F G H I J K L M N O P Q R S T U V W X Y Z