Song name
# A B C D E F G H I J K L M N O P Q R S T U V W X Y Z

Right Away Great Captain - Captain Im Fine And I Thank You For Everything tab

-------------------------------------------------------------------------------
           CAPTAIN, I'M FINE AND THANK YOU FOR EVERYTHING - Right Away, Great Captain!
-------------------------------------------------------------------------------

| /  Slide up

Verse
e|---------------------------------------------------------|
B|---------------------------------------------------------|
G|---------------------------------------------------------|
D|-------------0-----0-----0--------------0-----0-----0----|  x4 (extra open one
A|--------------0-----0-----0--------------0-----0-----0---|         on end)
D|-/12-11-7-5----55-----5-------/9-7-5-0----00-----0-------|

Chorus
|-----------------------------------------------------|
|-----------------------------------------------------|
|-----------------------------------------------------|
|------0-----0-------0-----0-----0-----0-----0-----0--|  x2
|-------0-----0-------0-----0-----0-----0-----0-----0-|
|-0h2-----2-----2/5-----5-----0-----0-----0-----0-----|

Verse 2 – Same as Verse – x4
Chorus – x1

Outro.
|-----------------------|--------------|
|-----------------------|--------------|
|-----------------------|--------------|
|------0-----0-------0--|----------0---|
|-------0-----0-------0-|--------------|
|-0h2-----2-----2/5-----|-/12-11-7-0---|

Captain's glory.
The trumpets’ll sound.
I'm unfamiliar.
You're under the ground.
And I tried crying,
but strength was unveiled.
You left us, you bastard.
You left us to sail.

And I won't, won’t, won’t let you down.
No, I won't, won’t, won’t let you down.

And in the winters,
I need you around.
I still feel sorrow,
and I still write it down.
And my children they're just fine,
they'd have loved you, you know.
Their father's a captain,
with a beard just like you.

And I won't, won’t, won’t let you down.
No, I won't, won’t, won’t let you down.
Tap to rate this tab
# A B C D E F G H I J K L M N O P Q R S T U V W X Y Z