Song name
# A B C D E F G H I J K L M N O P Q R S T U V W X Y Z

Right Away Great Captain - Oh Deceiver tab

|--------------------------------|
|--------------------------------|
|--------------------------------|
|-0-----0---------0-----0--------|   X5
|---4-------4-------2-------2----|
|-----5---5-----------0---0------|


|------------------------------------------------|
|------------------------------------------------|
|------------------------------------------------|
|---------------2--------------------------------|
|---0---2---4-------4--------2---2/4---4---4\2---|
|-2---2---2---2---2--------0---0-----0---0-------|


|--------------------------------|
|--------------------------------|
|--------------------------------|
|-0-----0---------0-----0--------|   X5
|---4-------4-------2-------2----|
|-----5---5-----------0---0------|

|------------------------------------------------|
|------------------------------------------------|
|------------------------------------------------|
|---------------2--------------------------------|
|---0---2---4-------4--------2---2/4---4---4\2---|
|-2---2---2---2---2--------0---0-----0---0-------|

|--------------------------------|
|--------------------------------|
|--------------------------------|
|-0-----0---------0-----0--------|   X2
|---4-------4-------2-------2----|
|-----5---5-----------0---0------|

|--------------|
|--------------|
|--------------|
|-0-----0------|
|---4-------4--|
|-----5---5----|
Tap to rate this tab
# A B C D E F G H I J K L M N O P Q R S T U V W X Y Z