Song name
# A B C D E F G H I J K L M N O P Q R S T U V W X Y Z

Right Said Fred - Im Too Sexy tab

#----------------------------------PLEASE NOTE--------------------------------#
#This file is the author's own work and represents their interpretation of the#
#song. You may only use this file for private study, scholarship, or research.#
#-----------------------------------------------------------------------------#
#-- File created with Instab - http://www.pconline.com/~smcarey/instab.html --#
#-----------------------------------------------------------------------------#

Author/Artist: Right Said Fred
Title: I'm Too Sexy

Standard Tuning

-------|-------------------------------------------------|--|-----------------|
-------|-0-2-0-2--0--0-2-0-2--3--3-2-3-2--0--0-2-0-2--0--|--|-----------------|
-------|-------------------------------------------------|--|-----------------|
-------|-------------------------------------------------|--|-----------------|
-------|-------------------------------------------------|--|-----------------|
-------|-------------------------------------------------|--|-----------------|
        Intro Riff

-------|-0---0---0----|--|----------------------------------------------------|
-------|-x---x---x----|--|----------------------------------------------------|
-------|-4---7---4----|--|----------------------------------------------------|
-------|-2---7---4----|--|----------------------------------------------------|
-------|-2---5---2----|--|----------------------------------------------------|
-------|-x---x---x----|--|----------------------------------------------------|
        Verse/Chorus Chords Strum
Tap to rate this tab
 
# A B C D E F G H I J K L M N O P Q R S T U V W X Y Z