Song name
# A B C D E F G H I J K L M N O P Q R S T U V W X Y Z

Righteous Brothers - Unchained Melody tab

-------------------------------------------------------------------------------
			     UNCHAINED MELODY - Righteous Brothers
-------------------------------------------------------------------------------
Tabbed by: Andy Gray
Email: andygray110@hotmail.com

Tuning: Standard


Verse/chorus 1:


   "Whoa..................my love..................my darling............I've

   C                      Am                       F

e|-------0-----------0-----------0-----------0-----------1-----------1-------|
B|-----1---1-------1---1-------1---1-------1---1-------1---1-------1---1-----|
G|---0-------0---0-------0---2-------2---2-------2---2-------2---2-------2---|
D|-2-----------2-----------2-----------2-----------3-----------3-----------3-|
A|---------------------------------------------------------------------------|
E|---------------------------------------------------------------------------|


    hungered for...........your touch............a long...............lonely

   G                       C                       Am
   
e|-------3-----------3-----------0-----------0-----------0-----------0-------|
B|-----0---0-------0---0-------1---1-------1---1-------1---1-------1---1-----|
G|---0-------0---0-------0---0-------0---0-------0---2-------2---2-------2---|
D|-0-----------0-----------2-----------2-----------2-----------2-----------2-|
A|---------------------------------------------------------------------------|
E|---------------------------------------------------------------------------|


   time.......................................and time..................goes

   G                                               C

e|-------3-----------3-----------3-----------3-----------0-----------0-------|
B|-----0---0-------0---0-------0---0-------0---0-------1---1-------1---1-----|
G|---0-------0---0-------0---0-------0---0-------0---0-------0---0-------0---|
D|-0-----------0-----------0-----------0-----------2-----------2-----------2-|
A|---------------------------------------------------------------------------|
E|---------------------------------------------------------------------------|

   by...................so slowly.............and time................can do
 
   Am                      F                       G

e|-------0-----------0-----------1-----------1-----------3-----------3-------|
B|-----1---1-------1---1-------1---1-------1---1-------0---0-------0---0-----|
G|---2-------2---2-------2---2-------2---2-------2---0-------0---0-------0---|
D|-2-----------2-----------3-----------3-----------0-----------0-----------0-|
A|---------------------------------------------------------------------------|
E|---------------------------------------------------------------------------|


   so much.............are you..............still mine.......................

   C                       Am                      G

e|-------0-----------0-----------0-----------0-----------3-----------3-------|
B|-----1---1-------1---1-------1---1-------1---1-------0---0-------0---0-----|
G|---0-------0---0-------0---2-------2---2-------2---0-------0---0-------0---|
D|-2-----------2-----------2-----------2-----------0-----------0-----------0-|
A|---------------------------------------------------------------------------|
E|---------------------------------------------------------------------------|


   ........................I need your love..................................
 
                           C                       G

e|-------3-----------3-----------0-----------0-----------3-----------3-------|
B|-----0---0-------0---0-------1---1-------1---1-------0---0-------0---0-----|
G|---0-------0---0-------0---0-------0---0-------0---0-------0---0-------0---|
D|-0-----------0-----------2-----------2-----------0-----------0-----------0-|
A|---------------------------------------------------------------------------|
E|---------------------------------------------------------------------------|


   I.......................need your love..........God speed your love......

   Am                      Em                      F

e|-------0-----------0-----------0-----------0-----------1-----------1-------|
B|-----1---1-------1---1-------0---0-------0---0-------1---1-------1---1-----|
G|---2-------2---2-------2---0-------0---0-------0---2-------2---2-------2---|
D|-2-----------2-----------2-----------2-----------3-----------3-----------3-|
A|---------------------------------------------------------------------------|
E|---------------------------------------------------------------------------|


   to......................me.

   G                       C                       C7

e|-------3-----------3-----------0-----------0-----------0-----------0-------|
B|-----0---0-------0---0-------1---1-------1---1-------1---1-------1---1-----|
G|---0-------0---0-------0---0-------0---0-------0---3-------3---3-------3---|
D|-0-----------0-----------2-----------2-----------2-----------2-----------2-|
A|---------------------------------------------------------------------------|
E|---------------------------------------------------------------------------|


Both lines of the bridge have the same chords:


 1 Lonely rivers flow......to the sea, to the sea............................
 2 Lonely rivers sigh......wait for me, wait for me..........................
 
   F           G           F           Em

e|-------1-----------3-----------1-----------0-------------------------------|
B|-----1---1-------0---0-------1---1-------0---0-----------------------------|
G|---2-------2---0-------0---2-------2---0-------0---------------------------|
D|-3-----------0-----------3-----------2-----------0-------------------------|
A|---------------------------------------------------------------------------|
E|---------------------------------------------------------------------------|


 1 To the open arms of the sea, yeah
 2 I'll be coming home, wait for me

   F           G           C         

e|-------1-----------3-----------0-----------0-------------------------------|
B|-----1---1-------0---0-------1---1-------1---0-----------------------------|
G|---2-------2---0-------0---0-------0---0-------0---------------------------|
D|-3-----------0-----------2-----------2-----------2-------------------------|
A|---------------------------------------------------------------------------|
E|---------------------------------------------------------------------------|


Verse/chorus 2 is identical to verse/chorus 1 except for the last few chords :


   to......................me.

   G                       C                       Am

e|-------3-----------3-----------0-----------0-----------0-----------0-------|
B|-----0---0-------0---0-------1---1-------1---1-------1---1-------1---1-----|
G|---0-------0---0-------0---0-------0---0-------0---2-------2---2-------2---|
D|-0-----------0-----------2-----------2-----------2-----------2-----------2-|
A|---------------------------------------------------------------------------|
E|---------------------------------------------------------------------------|


   F           Fm            C         

e|-------1-----------1-------0-----------------------------------------------|
B|-----1---1-------1---1-----1-----------------------------------------------|
G|---2-------2---1-------1---0-----------------------------------------------|
D|-3-----------3-------------2-----------------------------------------------|
A|---------------------------------------------------------------------------|
E|---------------------------------------------------------------------------|


| /  slide up
| \  slide down
| h  hammer-on
| p  pull-off
| ~  vibrato
| +  harmonic
| x  Mute note
=============================================================================
==

Enjoy! Andy ;)
Tap to rate this tab
 
# A B C D E F G H I J K L M N O P Q R S T U V W X Y Z