Guitaretab - guitar tabs
Song name
# A B C D E F G H I J K L M N O P Q R S T U V W X Y Z

Rihanna - Umbrella Acoustic tab

	This is my first tab.. Well, I hope i don't mess up lol. For strumming pattern watch 
video on this URL:

http://www.youtube.com/watch?v=3-UU8fK64NQ

*Note : I DON'T WANT TO TAKE ANY CREDITS FOR SUBMITTING THIS TAB... please rate, thanks!

Song : Umbrella
Band : Vanilla Sky
Tuning : Standard / Eb Tuning

~ - Let ring

Verse:

e|-------------------------------------|
B|-1--------1--------1---------1-------|
G|-------------------2-----------------|
D|-3--------2--------2---------2-------|  x2
A|-3--------2------------------2-------|
E|-------------------------------------|

Chorus:
[ Tab from: http://www.guitaretab.com/r/rihanna/165664.html ]
e|-------------------------------------|
B|-1--------1--------1---------1-------|
G|-------------------2-----------------|
D|-3--------2--------2---------2-------|  x2
A|-3--------2------------------2-------|
E|-------------------------------------|

Verse 2:

e|-------------------------------------|
B|-1--------1--------1---------1-------|
G|-------------------2-----------------|
D|-3--------2--------2---------2-------|  x2
A|-3--------2------------------2-------|
E|-------------------------------------|


Bridge:

e|-------------------------------------|
B|------------1~----------------1~-----|
G|---------------------1~-------2~-----|
D|-3~---------2~-------2~-------2~-----|
A|-3~---------3~-------2~--------------|
E|-1~----------------------------------|

Repeat Chorus

That's all...
Related for Umbrella Acoustic tab
×
Best way to learn
"Umbrella Acoustic"