Song name
# A B C D E F G H I J K L M N O P Q R S T U V W X Y Z

Rihanna - Photographs tab

This is a tab of Rhianna's Photographs song. You can use a capo on the 3rd fret to make 
easier to play.
The four chords : Em, B, G, Asus2 can be played in the whole song.

Intro :


E||-----------7-----------|-----------7-----------|-----------7-----------|
B||----------------8------|----------------7------|----------------8------|
G||--------9--------------|-----------------------|-----------------------|
D||-----9-----------------|--------9--------------|--------5--------------|
A||--7--------------------|-----9-----------------|-----5-----------------|
E||-----------------------|--7--------------------|--3--------------------|


------------7------------||
--------10-------10------||
-----9-------------------||
--7----------------------||
-------------------------||
-------------------------||
Tap to rate this tab
# A B C D E F G H I J K L M N O P Q R S T U V W X Y Z