Song name
# A B C D E F G H I J K L M N O P Q R S T U V W X Y Z

Rihanna - Russian Roulette tab

Capo 2nd fret


Intro:
e|--14~~--------12~~-----------------------|
B|--------14~~---------14--12--------14~~--|
G|-----------------------------14~~--------|
D|-----------------------------------------|
A|-----------------------------------------|
E|-----------------------------------------|

*The verse is actually the piano part in the background, but since this is a rock 
I thought it would be appropriate to give the guitar this part.  If you dont like it, the 
names are given.

Verse 1:
  Em          C           Am          B7
e|--14-------|--14-------|--14-------|--13-------|
B|-----14----|-----15----|-----15----|-----14----|
G|---------x4|---------x4|---------x4|---------x4|  whole line x3
D|-----------|-----------|-----------|-----------|
A|-----------|-----------|-----------|-----------|
E|-----------|-----------|-----------|-----------|

*On the Chorus, I have given the chord.  The rhythm and how many times you play it 
the measure are completely up to you.

Chorus:
  Em        C         D         Am              Em
e|----0----|----0----|----2----|----0----|    e|----0----|
B|----0----|----1----|----3----|----1----|    B|----0----|
G|----0----|----0----|----2----|----2----| x2 G|----0----|
D|----2----|----2----|----0----|----2----|    D|----2----|
A|----2----|----3----|----0----|----0----|    A|----2----|
E|----0----|----x----|----x----|----x----|    E|----0----|

Verse 2:
  Em          C           Am          B7
e|--14-------|--14-------|--14-------|--13-------|
B|-----14----|-----15----|-----15----|-----14----|
G|---------x4|---------x4|---------x4|---------x4|  whole line x2
D|-----------|-----------|-----------|-----------|
A|-----------|-----------|-----------|-----------|
E|-----------|-----------|-----------|-----------|

Chorus:
  Em        C         D         Am              C
e|----0----|----0----|----2----|----0----|    e|----0----|
B|----0----|----1----|----3----|----1----|    B|----1----|
G|----0----|----0----|----2----|----2----| x2 G|----0----|
D|----2----|----2----|----0----|----2----|    D|----2----|
A|----2----|----3----|----0----|----0----|    A|----3----|
E|----0----|----x----|----x----|----x----|    E|----x----|

Bridge:
  G         Am        Em        D         C         C#/A      D         D#dim
e|----3----|----0----|----0----|----2----|----0----|----0----|----2----|----2-----|
B|----0----|----1----|----0----|----3----|----1----|----2----|----3----|----1-----|
G|----0----|----2----|----0----|----2----|----0----|----2----|----2----|----2-----|
D|----0----|----2----|----2----|----0----|----2----|----2----|----0----|----1-----|
A|----2----|----0----|----2----|----0----|----3----|----0----|----0----|----x-----|
E|----3----|----x----|----0----|----x----|----x----|----x----|----x----|----x-----|
                      ^^(only 2 beats)^^^

Chorus:
  Em        C         D         Am              Em
e|----0----|----0----|----2----|----0----|    e|----0----|
B|----0----|----1----|----3----|----1----|    B|----0----|
G|----0----|----0----|----2----|----2----| x4 G|----0----|
D|----2----|----2----|----0----|----2----|    D|----2----|
A|----2----|----3----|----0----|----0----|    A|----2----|
E|----0----|----x----|----x----|----x----|    E|----0----|

......Bang! :)
Tap to rate this tab
 
# A B C D E F G H I J K L M N O P Q R S T U V W X Y Z