Song name
# A B C D E F G H I J K L M N O P Q R S T U V W X Y Z

Rihanna - Whats My Name tab

Rihanna - What's My Name (feat. Drake)

Guitar tab by John and George.

Click here to watch us performing this song -> http://www.youtube.com/watch?v=ZLm_UZZpXdg

Tuning: E A D G B e (Standard)

Guitar 1

Intro/Verse(1,2)

e -------------------------------------------------------------------|
B -----------3----------------3---------------3---------------3------|
G -------------0-----------------0---------------0---------------0---|
D -------0---------------0----------------2----------------2---------|
A -------------------------------------------------------------------|
E --3---------------3----------------0----------------0--------------|

e --------------------------------------------------------------------|
B -------------3-------------3--------------3--------------3----------|
G ---------------0-------------0----------------2-------------2-------|
D --------2--------------2---------------0--------------0-------------|
A ----3-------------3----------------0--------------0-----------------|
E --------------------------------------------------------------------|

Guitar 2

Intro/Verse/Chorus (Also Guitar 1 plays the same at chorus)

e ----0------0-----0-----0------|
B ----3------3-----3-----3------|
G ----0------0-----0-----2------|
D ----0------2-----2-----0------|
A ----2------2-----3-----x------|
E ----3------0-----x-----x------|

*BRIDGE*

Guitar 1/Guitar 2

e ----0----0-----0------------0----0----0-----|
B ----3----3-----3------------3----3----3-----|
G ----0----2-----0------------0----2----0-----|
D ----2----0-----2---x2-------2----0----2-----|
A ----3----x-----2------------3----x----3-----|
E ----x----x-----0------------x----x----x-----|
Tap to rate this tab
 
# A B C D E F G H I J K L M N O P Q R S T U V W X Y Z