Song name
# A B C D E F G H I J K L M N O P Q R S T U V W X Y Z

Rihanna - S And M tab

Intro/Chorus: Na, Na Na Come On!

e|-------------------------------| 
B|-------------------------------|
G|--8-8----------4--4---6-6---6--|
D|--8-8---6-6----4--4---6-6---6--|
A|--6-6---6-6----2--2---4-4---4--|
E --------4-4---------------------

E--------------------------------| 
B|-------------------------------|
G|--8-8----------4--4---6--------|
D|--8-8---6-6----4--4---6-4-3----|
A|--6-6---6-6----2--2---4-----4--|
E --------4-4---------------------

Verse:

Ebm                  C#
Feels so good being bad (Oh oh oh oh oh) 
Ebm                     C#
There's no way I'm turning back (Oh oh oh oh oh)
B                           C#                     Ebm            C#
Now the pain is my pleasure cause nothing could measure (Oh oh oh oh oh) 

Love is great, love is fine (Oh oh oh oh oh) 
Outta box, outta line (Oh oh oh oh oh) 
The affliction of the feeling leaves me wanting more (Oh oh oh oh oh)

Chorus: X2

Cause I may be bad, but I'm perfectly good at it 
Sex in the air, I don't care, I love the smell of it 
Sticks and stones may break my bones 
But chains and whips excite me 

Na na na na 
Come on, come on, come on 
I like it-like it 

Verse:

Love is great, love is fine (Oh oh oh oh oh) 
Outta box, outta line (Oh oh oh oh oh) 
The affliction of the feeling leaves me wanting more (Oh oh oh oh oh)

Chorus:

Cause I may be bad, but I'm perfectly good at it ....
Sex in the air....

Bridge 1:

"S-S-S & M-M-M"

Melody

e|------------6----------------------------6--------------------------------|
B|---------7------------7---------------7-----9--7--------------------------|
G|--8--10--------8--10----8------8--10-------------10--8--------------------|
D|--------------------------------------------------------------------------|
A|--------------------------------------------------------------------------|
E|--------------------------------------------------------------------------|

Bridge 2:

Abm            Bb                      Ebm
Oh, I love the feeling you bring to me, oh, you turn me on 
Abm               Bb                    Ebm
It's exactly what I've been yearning for, give it to me strong
Abm                      Gb                                   E 
Aand meet me in my boudoir, make my body say ah ah ah 
I like it-like it 

Chorus:

The End
Tap to rate this tab
 
# A B C D E F G H I J K L M N O P Q R S T U V W X Y Z