Rihanna - Take A Bow tab

capo 3

intro

   C       G    Am7    F
|--------------------------------|
|------1-----------1-------1-----|
|----0-------0---0-------2-------|
|----------0---2-----------------|    x4
|--3-----------------3-----------|
|--------3-----------------------|

Verse 1

|----------------------------|
|------1-----------1-------1-|
|----0-------0---0-------2---|
|----------0---2-------------|
|--3-----------------3-------|
|--------3-------------------|
you look so dumb right now

|----------------------------|
|------1-----------1-------1-|
|----0-------0---0-------2---|
|----------0---2-------------|
|--3-----------------3-------|
|--------3-------------------|
standing outside my house

|----------------------------|
|------1-----------1-------1-|
|----0-------0---0-------2---|
|----------0---2-------------|
|--3-----------------3-------|
|--------3-------------------|
trying to apoligize, your so ugly when you cry

    C     G/B  F
|-----------------|
|------1-----3----|
|----0-----0---2--|
|--------------3--|
|--3-----2-----3--|
|-----------------|
please, just cut it out

Chorus:
|----------------------------|
|------1-----------1-------1-|
|----0-------0---0-------2---|
|----------0---2-------------|
|--3-----------------3-------|
|--------3-------------------|
 and dont tell me your sorry when youre not

|-------------------|
|------1------------|
|----0-------0----2-|
|----------0------3-|
|--3--------------3-|
|--------3----------|
baby when i know your only sorry you got caught

|----------------------------|
|------1-----------1-------1-|
|----0-------0---0-------2---|
|----------0---2-------------|
|--3-----------------3-------|
|--------3-------------------|
but you put on quite a show, really had me going

|----------------------------|
|------1-----------1-------1-|
|----0-------0---0-------2---|
|----------0---2-------------|
|--3-----------------3-------|
|--------3-------------------|
now its time to go, curtains finally closing

|----------------------------|
|------1-----------1-------1-|
|----0-------0---0-------2---|
|----------0---2-------------|
|--3-----------------3-------|
|--------3-------------------|
that was quite a show, very entertaining

  Dm7      C/E   F    F
|-----------------------------|
|------2-----------1--------1-|
|----1-------0---2--------2---|
|--0-------2---------3--------|
|--------------0--------------|
|--------0--------------------|
But its over now

   Dm7   C/E   F
|------------------|
|------2-----------|
|----1-------0---2-|
|--0-------2-----3-|
|----------------3-|
|--------0---------|
go on and take a bow

Verse 2:

|----------------------------|
|------1-----------1-------1-|
|----0-------0---0-------2---|
|----------0---2-------------|
|--3-----------------3-------|
|--------3-------------------|
grab your clothes and get gone, better hurry up

|----------------------------|
|------1-----------1-------1-|
|----0-------0---0-------2---|
|----------0---2-------------|
|--3-----------------3-------|
|--------3-------------------|
before the sprinklers come on, talkin bout

|----------------------------|
|------1-----------1-------1-|
|----0-------0---0-------2---|
|----------0---2-------------|
|--3-----------------3-------|
|--------3-------------------|
girl i love you your the one this just looks like a rerun, please

    C     G/B  F
|-----------------|
|------1-----3----|
|----0-----0---2--|
|--------------3--|
|--3-----2-----3--|
|-----------------|
what else is on

Chorus (same as above)

Bridge:
   F            G      Am7         Dm7
|--------------------------------------------|
|------1-----1-----3-----1-----1-----1-----1-|
|----2-----2-----0-----0-----0-----2-----2---|
|--------------------------------0-----0-----|
|--3-----3-----------0-----0-----------------|
|--------------3-----------------------------|
and the award for the best liar goes to you
   C/E    F       G          Am7
|--------------------------------------|
|------------1-----------------1-----1-|
|------0---2-------0-----0---0-----0---|
|----2-----------0-----0---------------|
|--------3-----------------0-----0-----|
|--0-----------3-----3-----------------|
for makin me believe that you could be faithful to me

|--------------|
|--------------|
|------2-----2-|
|----3-----3---|
|--3-----3-----|
|--------------|
let hear your speech out

|----------------------------|
|------1-----------1-------1-|
|----0-------0---0-------2---|
|----------0---2-------------|
|--3-----------------3-------|
|--------3-------------------|
how bout a round of applause

|-------------------|
|------1-----3------|
|----0-----0-----2--|
|----------------3--|
|--2-----2-------3--|
|-------------------|
standin ovation

Chorus:
|----------------------------|
|------1-----------1-------1-|
|----0-------0---0-------2---|
|----------0---2-------------|
|--3-----------------3-------|
|--------3-------------------|
but you put on

|-------------------|
|------1------------|
|----0-------0----2-|
|----------0------3-|
|--3--------------3-|
|--------3----------|
baby when i know your only sorry you got caught

|----------------------------|
|------1-----------1-------1-|
|----0-------0---0-------2---|
|----------0---2-------------|
|--3-----------------3-------|
|--------3-------------------|
but you put on quite a show, really had me going

|----------------------------|
|------1-----------1-------1-|
|----0-------0---0-------2---|
|----------0---2-------------|
|--3-----------------3-------|
|--------3-------------------|
now its time to go, curtains finally closing

|----------------------------|
|------1-----------1-------1-|
|----0-------0---0-------2---|
|----------0---2-------------|
|--3-----------------3-------|
|--------3-------------------|
that was quite a show, very entertaining

  Dm7      C/E   F    F
|-----------------------------|
|------2-----------1--------1-|
|----1-------0---2--------2---|
|--0-------2---------3--------|
|--------------0--------------|
|--------0--------------------|
But its over now

   Dm7   C/E   F
|--------------------------|
|------2-------------------|
|----1-------0-----2-----2-|
|--0-------2-----3-----3---|
|--------------3-----3-----|
|--------0-----------------|
go on and take a bow

Dm7      C/E   F
|------------------|
|------2-----------|
|----1-------0---2-|
|--0-------2-----3-|
|----------------3-|
|--------0---------|
go on and take a bow
Tap to rate this tab
 
# A B C D E F G H I J K L M N O P Q R S T U V W X Y Z