Rihanna - Whats My Name tab

-------------------------------------------------------------------
			     What’s My Name? - Rihanna
-------------------------------------------------------------------
Tabbed by:Death_Leopard
Email:death_leopard8@yahoo.com	

Sounds good as an acoustic duet! Enjoy!
Tuning: Drop D

Verse
e|----------------------------------------------|
B|----------------------------------------------|
G|---6-66-4-6-----6-66-4-6---6-66-4-6---6-66-4-6|
D|-------------------------7----------7---------|
A|-4------------7----------5----------5---------|
D|-4------------7----------0----------0---------|

Verse Lead
e|----9-99-7-9----9-99-7-9---9-99-9-7-9---9-99-7-9--|
B|-7--x-xx-x-x----x-xx-x-x---x-xx-x-x-x---x-xx-x-x--|
G|-x--6-66-4-6-10-6-66-4-6-7-6-66-6-4-6-7-6-66-4-6--|
D|-4-----------x-----------x------------x-----------|
A|-------------7-----------5------------5-----------|
D|--------------------------------------------------|

Vocals (Made for Second Guitar)
e|------------------------------|
B|-7-/-10-----------------------|
G|-------9-9---7-6-6------------|
D|------------------------------|
A|------------------------------|
D|------------------------------|
	“Ohh Na Na Whats My Name?”
e|---------------------------------|
B|---------------------------------|
G|---------------------------------|
D|-7-9-11-11--/11-11-11-9-7-/11-11-|
A|---------------------------------|
D|---------------------------------|
	“Everybody knows how to…”
e|-------------------------------------------|
B|-------------------------------------------|
G|-----------7--------------------7----------|
D|-/11-11-11---11-11-9--/11-11-11--11-11-9---|
A|-------------------------------------------|
E|-------------------------------------------|
	“Knows how to make me want it ”



e|-----------------------------------------------------|
B|-----------------------------------------10-----10---|
G|-/-11-11--11-11-11-11-11-11-\-9-99--999-9--9-7-9--99-|
D|-----------------------------------------------------|
A|-----------------------------------------------------|
E|-----------------------------------------------------|
 “Hey Boy I really wanna see if you…
e|-----------------------------|-----------------|
B|-----------------------------|---10------------|
G|-99999-99-99-6-99999-99-99-6-|-11--11-9--------|
D|-----------------------------|----------11-----|
A|-----------------------------|-----------------|
E|-----------------------------|-----------------|
“I need a boy…”				“Oh oo Oh OH Oh oh



************************************

| /   slide up
| \   slide down
| h   hammer-on
| p   pull-off
| ~   vibrato
| +   harmonic
| x   Mute note
| b   Bend
| pb  Pre-bend
| br  Bend release
| pbr Pre-bend release
| brb Bend release bend

************************************
Tap to rate this tab
 
# A B C D E F G H I J K L M N O P Q R S T U V W X Y Z