Song name
# A B C D E F G H I J K L M N O P Q R S T U V W X Y Z

Rihanna - California King Bed tab

e|--/7---3--------/7--5--3--5--7--5--3--2--3------2^3^2--------------------|
B|----------3--0----------------------------------------3-0----------------|
G|----------------------------------------------------------2-0------------|
D|--------------------------------------------------------------2----------|
A|-------------------------------------------------------------------------|
E|-------------------------------------------------------------------------|

e|--/7---3--------/7--5--3--2--3-------/5--3--/7--5------------------------|
B|----------3--0--------------------3--------------------------------------|
G|-------------------------------------------------------------------------|
D|-------------------------------------------------------------------------|
A|-------------------------------------------------------------------------|
E|-------------------------------------------------------------------------|

the solo is also played over the chorus after the bridge however it isn't so noticable.

second solo is different but is using the same notes an octive higher.
Tap to rate this tab
 
# A B C D E F G H I J K L M N O P Q R S T U V W X Y Z