Guitaretab - guitar tabs
Song name
# A B C D E F G H I J K L M N O P Q R S T U V W X Y Z

Rihanna - California King Bed tab

Artist: Rihanna
Song: California King Bed


 Intro
   Q.   Q.   Q  Q.   Q.   Q  Q.   Q.   Q  Q.   Q.   Q
|-------------------------------------------------------|
|--3----3-------3----3-------3----3-------3----3--------|
|-------------------------------------------------------|
|-------------------------------------------------------|
|--2----3-------2----3-------2----3-------2----0--------|
|-------------------------------------------------------|


 Verse
   Q.   Q.   Q  Q.   Q.   Q  Q.   Q.   Q  Q.   Q.   Q
|-------------------------------------------------------|
|--3----3-------3----3-------3----3-------3----3--------|
|-------------------------------------------------------|
|-------------------------------------------------------|
|--2----3-------2----3-------2----3-------2----0--------|
|-------------------------------------------------------|


   Q.   Q.   Q  Q.   Q.   Q  Q.   Q.   Q  Q.   Q.   Q
|-------------------------------------------------------|
|--3----3-------3----3-------3----3-------3----3--------|
|-------------------------------------------------------|
|-------------------------------------------------------|
|--2----3-------2----3-------2----3-------2----0--------|
|-------------------------------------------------------|


 Pre Chorus
  Q  E S S S S E E E  Q  E Q  E E E
|-3--3-3-3-3-3-3-3-3--3--3-2--2-2-2----|
|-3--3-3-3-3-3-3-3-3--3--3-3--3-3-3----|
|-0--0-0-0-0-0-0-0-0--2--2-2--2-2-2----|
|-2--2-2-2-2-2-2-2-2--0--0-0--0-0-0----|
|-2--2-2-2-2-2-3-3-3-------------------|
|-0--0-0-0-0-0-0-0-0-------------------|


  Q  E S S S S E E E  Q  E Q  E E E
|-3--3-3-3-3-3-3-3-3--3--3-2--2-2-2----|
|-3--3-3-3-3-3-3-3-3--3--3-3--3-3-3----|
|-0--0-0-0-0-0-0-0-0--2--2-2--2-2-2----|
|-2--2-2-2-2-2-2-2-2--0--0-0--0-0-0----|
|-2--2-2-2-2-2-3-3-3-------------------|
|-0--0-0-0-0-0-0-0-0-------------------|


 Chorus
  Q  Q  E E E Q  E E Q  E E E Q  Q  E E E Q  E E Q  E E E
|-3--3--3-3-3-3--3-3-2--2-2-2-3--3--3-3-3-3--3-3-3--3-3-3----|
|-3--3--3-3-3-3--3-3-3--3-3-3-3--3--3-3-3-3--3-3-3--3-3-3----|
|-0--0--0-0-0-2--2-2-2--2-2-2-0--0--0-0-0-0--0-0-0--0-0-0----|
|-0--0--0-0-0-0--0-0-0--0-0-0-2--2--2-2-2-2--2-2-2--2-2-2----|
|-2--2--2-2-2-----------------2--2--2-2-2-3--3-3-3--3-3-3----|
|-3--3--3-3-3-----------------0--0--0-0-0-0--0-0-0--0-0-0----|


  Q  Q  E E E Q  E E Q  E E Q  E E Q  E E Q  E E E
|-3--3--3-3-3-3--3-3-2--2-2-3--3-3-3--3-3-3--3-3-3----|
|-3--3--3-3-3-3--3-3-3--3-3-3--3-3-3--3-3-3--3-3-3----|
|-0--0--0-0-0-2--2-2-2--2-2-0--0-0-0--0-0-0--0-0-0----|
|-0--0--0-0-0-0--0-0-0--0-0-2--2-2-2--2-2-2--2-2-2----|
|-2--2--2-2-2---------------2--2-2-2--2-2-3--3-3-3----|
|-3--3--3-3-3---------------0--0-0-0--0-0-0--0-0-0----|


  E S E S Q  E E E E E Q
|-3-3-3-3-3--3-3-3-3--------|
|-3-3-3-3-3--3-3-3-3--------|
|-0-0-0-0-0--0-0-0-0--------|
|-2-2-2-2-0--0-0-0-0--------|
|-3-3-3-3-2--2-2-2-2--------|
|-0-0-0-0-3--3-3-3-3--------|


 Verse
  E E E Q  E E S S E E E Q  E E S S E E E Q  E E S S
|-3-3-3-3--3-3-3-3-3-3-3-3--3-3-3-3-3-3-3-3--3-3-3-3----|
|-3-3-3-3--3-3-3-3-3-3-3-3--3-3-3-3-3-3-3-3--3-3-3-3----|
|-0-0-0-0--0-0-0-0-0-0-0-0--0-0-0-0-0-0-0-0--0-0-0-0----|
|-0-0-0-2--2-2-2-2-0-0-0-2--2-2-2-2-0-0-0-2--2-2-2-2----|
|-2-2-2-3--3-3-3-3-2-2-2-3--3-3-3-3-2-2-2-3--3-3-3-3----|
|-3-3-3-0--0-0-0-0-3-3-3-0--0-0-0-0-3-3-3-0--0-0-0-0----|


  E E E Q  E E E
|-3-3-3-3--3-2-2----|
|-3-3-3-3--3-3-3----|
|-0-0-0-2--2-2-2----|
|-2-2-2-0--0-0-0----|
|-2-2-2-------------|
|-0-0-0-------------|


  E E E Q  E E S S E E E Q  E E S S E E E Q  E E S S
|-3-3-3-3--3-3-3-3-3-3-3-3--3-3-3-3-3-3-3-3--3-3-3-3----|
|-3-3-3-3--3-3-3-3-3-3-3-3--3-3-3-3-3-3-3-3--3-3-3-3----|
|-0-0-0-0--0-0-0-0-0-0-0-0--0-0-0-0-0-0-0-0--0-0-0-0----|
|-0-0-0-2--2-2-2-2-0-0-0-2--2-2-2-2-0-0-0-2--2-2-2-2----|
|-2-2-2-3--3-3-3-3-2-2-2-3--3-3-3-3-2-2-2-3--3-3-3-3----|
|-3-3-3-0--0-0-0-0-3-3-3-0--0-0-0-0-3-3-3-0--0-0-0-0----|


  E E E Q  E E E
|-3-3-3-3--3-2-2----|
|-3-3-3-3--3-3-3----|
|-0-0-0-2--2-2-2----|
|-2-2-2-0--0-0-0----|
|-2-2-2-------------|
|-0-0-0-------------|


 Pre Chorus
  Q  E S S S S E E E  Q  E Q  E E E
|-3--3-3-3-3-3-3-3-3--3--3-2--2-2-2----|
|-3--3-3-3-3-3-3-3-3--3--3-3--3-3-3----|
|-0--0-0-0-0-0-0-0-0--2--2-2--2-2-2----|
|-2--2-2-2-2-2-2-2-2--0--0-0--0-0-0----|
|-2--2-2-2-2-2-3-3-3-------------------|
|-0--0-0-0-0-0-0-0-0-------------------|

[ Tab from: http://www.guitaretab.com/r/rihanna/283334.html ]
  Q  E S S S S E E E  Q  E Q  E E E
|-3--3-3-3-3-3-3-3-3--3--3-2--2-2-2----|
|-3--3-3-3-3-3-3-3-3--3--3-3--3-3-3----|
|-0--0-0-0-0-0-0-0-0--2--2-2--2-2-2----|
|-2--2-2-2-2-2-2-2-2--0--0-0--0-0-0----|
|-2--2-2-2-2-2-3-3-3-------------------|
|-0--0-0-0-0-0-0-0-0-------------------|


 Chorus
  Q  Q  E E E Q  E E Q  E E E Q  Q  E E E Q  E E Q  E E E
|-3--3--3-3-3-3--3-3-2--2-2-2-3--3--3-3-3-3--3-3-3--3-3-3----|
|-3--3--3-3-3-3--3-3-3--3-3-3-3--3--3-3-3-3--3-3-3--3-3-3----|
|-0--0--0-0-0-2--2-2-2--2-2-2-0--0--0-0-0-0--0-0-0--0-0-0----|
|-0--0--0-0-0-0--0-0-0--0-0-0-2--2--2-2-2-2--2-2-2--2-2-2----|
|-2--2--2-2-2-----------------2--2--2-2-2-3--3-3-3--3-3-3----|
|-3--3--3-3-3-----------------0--0--0-0-0-0--0-0-0--0-0-0----|


  Q  Q  E E E Q  E E Q  E E Q  E E Q  E E Q  E E E
|-3--3--3-3-3-3--3-3-2--2-2-3--3-3-3--3-3-3--3-3-3----|
|-3--3--3-3-3-3--3-3-3--3-3-3--3-3-3--3-3-3--3-3-3----|
|-0--0--0-0-0-2--2-2-2--2-2-0--0-0-0--0-0-0--0-0-0----|
|-0--0--0-0-0-0--0-0-0--0-0-2--2-2-2--2-2-2--2-2-2----|
|-2--2--2-2-2---------------2--2-2-2--2-2-3--3-3-3----|
|-3--3--3-3-3---------------0--0-0-0--0-0-0--0-0-0----|


  E S E S Q  E E E E E Q
|-3-3-3-3-3--3-3-3-3--------|
|-3-3-3-3-3--3-3-3-3--------|
|-0-0-0-0-0--0-0-0-0--------|
|-2-2-2-2-0--0-0-0-0--------|
|-3-3-3-3-2--2-2-2-2--------|
|-0-0-0-0-3--3-3-3-3--------|


 Bridge
  E S E S E S E S E E E S E S E S E S E E
|-3-3-3-3-3-3-3-3-3-3-3-3-3-3-2-2-2-2-2-2----|
|-3-3-3-3-3-3-3-3-3-3-3-3-3-3-3-3-3-3-3-3----|
|-0-0-0-0-0-0-0-0-0-0-2-2-2-2-2-2-2-2-2-2----|
|-0-0-0-0-0-0-0-0-0-0-0-0-0-0-0-0-0-0-0-0----|
|-2-2-2-2-2-2-2-2-2-2------------------------|
|-3-3-3-3-3-3-3-3-3-3------------------------|


  E S E S E S E S E E E S E S E S E S E E
|-3-3-3-3-3-3-3-3-3-3-3-3-3-3-3-3-3-3-3-3----|
|-3-3-3-3-3-3-3-3-3-3-3-3-3-3-3-3-3-3-3-3----|
|-0-0-0-0-0-0-0-0-0-0-0-0-0-0-0-0-0-0-0-0----|
|-2-2-2-2-2-2-2-2-2-2-2-2-2-2-2-2-2-2-2-2----|
|-2-2-2-2-2-2-2-2-2-2-3-3-3-3-3-3-3-3-3-3----|
|-0-0-0-0-0-0-0-0-0-0-0-0-0-0-0-0-0-0-0-0----|


 Verse
  Q  E S S Q  E S S Q  E S S Q  Q
|-3--3-3-3-3--3-3-3-3--3-3-3-3--2----|
|-3--3-3-3-3--3-3-3-3--3-3-3-3--3----|
|-0--0-0-0-0--0-0-0-0--0-0-0-2--2----|
|-2--2-2-2-2--2-2-2-0--0-0-0-0--0----|
|-2--2-2-2-3--3-3-3-2--2-2-2---------|
|-0--0-0-0-0--0-0-0-3--3-3-3---------|


  Q  E S S Q  E S S Q  E S S Q  Q
|-3--3-3-3-3--3-3-3-3--3-3-3-3--2----|
|-3--3-3-3-3--3-3-3-3--3-3-3-3--3----|
|-0--0-0-0-0--0-0-0-0--0-0-0-2--2----|
|-2--2-2-2-2--2-2-2-0--0-0-0-0--0----|
|-2--2-2-2-3--3-3-3-2--2-2-2---------|
|-0--0-0-0-0--0-0-0-3--3-3-3---------|


  Q  E S S Q  E S S Q  E S S Q  Q
|-3--3-3-3-3--3-3-3-3--3-3-3-3--2----|
|-3--3-3-3-3--3-3-3-3--3-3-3-3--3----|
|-0--0-0-0-0--0-0-0-0--0-0-0-2--2----|
|-2--2-2-2-2--2-2-2-0--0-0-0-0--0----|
|-2--2-2-2-3--3-3-3-2--2-2-2---------|
|-0--0-0-0-0--0-0-0-3--3-3-3---------|


  E S E S E S E S E S S E S E S E S E S E S S
|-3-3-3-3-3-3-3-3-3-3-3-3-3-3-3-2-2-2-2-2-2-2----|
|-3-3-3-3-3-3-3-3-3-3-3-3-3-3-3-3-3-3-3-3-3-3----|
|-0-0-0-0-0-0-0-0-0-0-0-2-2-2-2-2-2-2-2-2-2-2----|
|-2-2-2-2-2-2-2-2-2-2-2-0-0-0-0-0-0-0-0-0-0-0----|
|-2-2-2-2-2-2-2-2-2-2-2--------------------------|
|-0-0-0-0-0-0-0-0-0-0-0--------------------------|


  E S E S E S E S E S S E S E S E S E S E S S
|-3-3-3-3-3-3-3-3-3-3-3-3-3-3-3-2-2-2-2-2-2-2----|
|-3-3-3-3-3-3-3-3-3-3-3-3-3-3-3-3-3-3-3-3-3-3----|
|-0-0-0-0-0-0-0-0-0-0-0-2-2-2-2-2-2-2-2-2-2-2----|
|-2-2-2-2-2-2-2-2-2-2-2-0-0-0-0-0-0-0-0-0-0-0----|
|-3-3-3-3-3-3-3-3-3-3-3--------------------------|
|-0-0-0-0-0-0-0-0-0-0-0--------------------------|


 Chorus
  Q  Q  E E E Q  E E Q  E E E Q  Q  E E E Q  E E Q  E E E
|-3--3--3-3-3-3--3-3-2--2-2-2-3--3--3-3-3-3--3-3-3--3-3-3----|
|-3--3--3-3-3-3--3-3-3--3-3-3-3--3--3-3-3-3--3-3-3--3-3-3----|
|-0--0--0-0-0-2--2-2-2--2-2-2-0--0--0-0-0-0--0-0-0--0-0-0----|
|-0--0--0-0-0-0--0-0-0--0-0-0-2--2--2-2-2-2--2-2-2--2-2-2----|
|-2--2--2-2-2-----------------2--2--2-2-2-3--3-3-3--3-3-3----|
|-3--3--3-3-3-----------------0--0--0-0-0-0--0-0-0--0-0-0----|


  Q  Q  E E E Q  E E Q  E E Q  E E Q  E E Q  E E E
|-3--3--3-3-3-3--3-3-2--2-2-3--3-3-3--3-3-3--3-3-3----|
|-3--3--3-3-3-3--3-3-3--3-3-3--3-3-3--3-3-3--3-3-3----|
|-0--0--0-0-0-2--2-2-2--2-2-0--0-0-0--0-0-0--0-0-0----|
|-0--0--0-0-0-0--0-0-0--0-0-2--2-2-2--2-2-2--2-2-2----|
|-2--2--2-2-2---------------2--2-2-2--2-2-3--3-3-3----|
|-3--3--3-3-3---------------0--0-0-0--0-0-0--0-0-0----|


  E S E S Q  E E E E E Q
|-3-3-3-3-3--3-3-3-3--------|
|-3-3-3-3-3--3-3-3-3--------|
|-0-0-0-0-0--0-0-0-0--------|
|-2-2-2-2-0--0-0-0-0--------|
|-3-3-3-3-2--2-2-2-2--------|
|-0-0-0-0-3--3-3-3-3--------|


www.guitarstars.biz
Related for California King Bed tab
×
Best way to learn
"California King Bed"