Song name
# A B C D E F G H I J K L M N O P Q R S T U V W X Y Z

Rihanna - S And M tab

Rihanna
S And M Spydah Rock Remix
Loud
2010
Submitted by: paramore_fans@yahoo.com

Tuning: Drop D

Key: F#


Intro:

Silence:

Guitar 1:
e|-------------------------|
B|-------------------------|
g|-8--8--------4-4--6--6-6-|
D|-8--8--6--6--4-4--6--6-6-|
A|-6--6--6--6--2-2--4--4-4-|
D|-------6--6--------------|

e|---------------------------|
B|---------------------------|
g|-8--8--------4-4--6--------|
D|-8--8--6--6--4-4--6--4-3-1-|
A|-6--6--6--6--2-2--4--------|
D|-------6--6----------------|

e|-------------------------|
B|-------------------------|
g|-8--8--------4-4--6--6-6-|
D|-8--8--6--6--4-4--6--6-6-|
A|-6--6--6--6--2-2--4--4-4-|
D|-------6--6--------------|

e|--------------------|
B|--------------------|
g|-8--8--------4-4--6-|
D|-8--8--6--6--4-4--6-|
A|-6--6--6--6--2-2--4-|
D|-------6--6---------|


Guitar 2:
e|-------------------------|
B|-------------------------|
g|-8--8--------4-4--6--6-6-|
D|-8--8--6--6--4-4--6--6-6-|
A|-6--6--6--6--2-2--4--4-4-|
D|-------6--6--------------|

e|---------------------------|
B|---------------------------|
g|-8--8--------4-4--6--3-1---|
D|-8--8--6--6--4-4--6------4-|
A|-6--6--6--6--2-2--4--------|
D|-------6--6----------------|

e|-------------------------|
B|-------------------------|
g|-8--8--------4-4--6--6-6-|
D|-8--8--6--6--4-4--6--6-6-|
A|-6--6--6--6--2-2--4--4-4-|
D|-------6--6--------------|

e|--------------------|
B|--------------------|
g|-8--8--------4-4--6-|
D|-8--8--6--6--4-4--6-|
A|-6--6--6--6--2-2--4-|
D|-------6--6---------|


Distortion:

Guitar 1:
e|---------------------------------|
B|---------------------------------|
G|-----------------4-4-4-4-6-6-6-6-|
D|-1-1-1-1-6-6-6-6-4-4-4-4-6-6-6-6-| x4
A|-1-1-1-1-6-6-6-6-2-2-2-2-4-4-4-4-|
D|-1-1-1-1-6-6-6-6-----------------|


Guitar 2: Fast Tapping, h means hammer, p means pull off
e|-11p2h11p2h11p2h11p2-11p4h11p4h11p4h11p4--9p2h9p2h9p2h9p2--7p2h7p2--6h1p6h1-|
B|----------------------------------------------------------------------------|
G|----------------------------------------------------------------------------|
D|----------------------------------------------------------------------------| x4
A|----------------------------------------------------------------------------|
D|----------------------------------------------------------------------------|


Verses:

Guitar 1:
e|------------------------1-2-4-|
B|----------------------4-------|
G|----6-----6--4--6-------------|
D|-1--6--1--6--4--6--1----------| x2
A|-1--4--1--4--2--4--1----------|
D|-1-----1-----------1----------|

e|----------------------2-4-6-7-|
B|------------------------------|
G|----6-----6--4--6-------------|
D|-1--6--1--6--4--6--1----------| x2
A|-1--4--1--4--2--4--1----------|
D|-1-----1-----------1----------|

Bass:
G|----------------------------1-|
D|----------------------1-3-4---| x2
A|----4-----4--2--4-------------|
D|-1-----1-----------1----------|


Chorus:

Both Guitars:
e|--------------|
B|--------------|
G|-------4-4--6-|
D|-1--6--4-4--6-| x2
A|-1--6--2-2--4-|
D|-1--6---------|

e|--------------------|
B|--------------------|
G|-----------4-4--6-6-|
D|-1-1--6-6--4-4--6-6-|
A|-1-1--6-6--2-2--4-4-|
D|-1-1--6-6-----------|

e|------------------------|
B|------------------------|
G|-----------4-4--6-6-6-6-|
D|-1-1--6-6--4-4--6-6-6-6-|
A|-1-1--6-6--2-2--4-4-4-4-|
D|-1-1--6-6---------------|

e|---------------------------------|
B|---------------------------------|
G|-8-8-8-8---------4-4-4-4-6-6-6-6-|
D|-8-8-8-8-6-6-6-6-4-4-4-4-6-6-6-6-| x4
A|-6-6-6-6-6-6-6-6-2-2-2-2-4-4-4-4-|
D|---------6-6-6-6-----------------|


(Repeat Distortion Intro Part)
(Repeat Verses)
(Repeat Chorus)
(Repeat Distortion Intro Part)


Bridge:

Guitar 1:
e|--------------|
B|--------------|
G|----3---------|
D|-1--3--4--6-4-| x2
A|-1--1--4--6-4-|
D|-1-----4--6-4-|

e|-----------------------------------------------------------------|
B|-----------------------------------------------------------------|
G|-----------------3-3-3-3-3-3-3-3---------------------------------|
D|-1-1-1-1-1-1-1-1-3-3-3-3-3-3-3-3-4-4-4-4-4-4-4-4-6-6-6-6-4-4-4-4-|
A|-1-1-1-1-1-1-1-1-1-1-1-1-1-1-1-1-4-4-4-4-4-4-4-4-6-6-6-6-4-4-4-4-|
D|-1-1-1-1-1-1-1-1-----------------4-4-4-4-4-4-4-4-6-6-6-6-4-4-4-4-|


Guitar 2:
e|----6---------|
B|-4-----7--9-7-|
G|--------------|
D|--------------| x2
A|--------------|
D|--------------|

e|-----------------6-6-6-6-6-6-6-6---------------------------------|
B|-4-4-4-4-4-4-4-4-----------------7-7-7-7-7-7-7-7-9-9-9-9-7-7-7-7-|
G|-----------------------------------------------------------------|
D|-----------------------------------------------------------------|
A|-----------------------------------------------------------------|
D|-----------------------------------------------------------------|


(Repeat Chorus but silence at first 2 Chorus lines)
(Repeat Distortion Intro Part)


Outro:

Guitar 1:
e|---------------------------------|
B|---------------------------------|
G|-----------------4-4-4-4-6-6-6-6-|
D|-1-1-1-1-6-6-6-6-4-4-4-4-6-6-6-6-| x3
A|-1-1-1-1-6-6-6-6-2-2-2-2-4-4-4-4-|
D|-1-1-1-1-6-6-6-6-----------------|

e|-------------------|
B|-------------------|
G|-----------------4-|
D|-1-1-1-1-6-6-6-6-4-|
A|-1-1-1-1-6-6-6-6-2-|
D|-1-1-1-1-6-6-6-6---|


Guitar 2:
e|---7-6-----7-6------------------------------------|
B|-------7-------7-7p4h7p4h7p4h7p4--9p6h9p6h9p6h9p6-|
G|-8-------8----------------------------------------|
D|--------------------------------------------------| x3
A|--------------------------------------------------|
D|--------------------------------------------------|

e|---7-6-----7-6-----------14p1h14p11---------14p11h14p11-|
B|-------7-------7-7p4h7p4------------7p4h7p4-------------|
G|-8-------8----------------------------------------------|
D|--------------------------------------------------------|
A|--------------------------------------------------------|
D|--------------------------------------------------------|
Tap to rate this tab
 
# A B C D E F G H I J K L M N O P Q R S T U V W X Y Z