Song name
# A B C D E F G H I J K L M N O P Q R S T U V W X Y Z

Rihanna - California King Bed tab

My first tab, please comment and rate:

E|----------------------------------------------------------------|
B|--12-----------------------------12-----------------------------|
G|------12----------14~----12--14------14--12--11--12----12h11p12-|
D|----------12----------------------------------------------------|
A|--------------14------------------------------------------------|
E|----------------------------------------------------------------|

E|----------------|
B|----------------|
G|----------------|
D|-12-10----------|
A|-------14-12----|
E|-------------15-|


E|----------------------------------------------------------------|
B|--12--------------12--------------------------------------12----|
G|------12--------------14----12--11--12----------14--12--------14|
D|----------12--------------------------------12------------------|
A|--------------14------------------------------------------------|
E|----------------------------------------------------------------|

No copy, just by ear.
 - Casper R.
Tap to rate this tab
# A B C D E F G H I J K L M N O P Q R S T U V W X Y Z