Song name
# A B C D E F G H I J K L M N O P Q R S T U V W X Y Z

Rihanna - We Found Love tab

We Found Love - Rihanna

Intro

e|---------------------------------------------------------------|
B|-11-11-11-141414-----------------------------------------------|
G|-11-11-11-111111-----------------------------------------------|
D|---------------------------------------------------------------|
A|---------------------------------------------------------------|
E|---------------------------------------------------------------|

Part 1

e|-----------------------------------------|---------------------|x2
B|-111111--------------111111-12-11-------|---------------------|
G|-------11-10-1111h13-------11-----11-----|-1113s15------------|
D|-----------------------------------------|---------------------|
A|-----------------------------------------|---------on 2nd time-|
E|-----------------------------------------|---------------------|

e|---------------------------------------------------------------|
B|---1414-12-11-9-12-11-9-------9h11-----------------------------|
G|-11---------------------1111-----------------------------------|
D|---------------------------------------------------------------|
A|---------------------------------------------------------------|
E|---------------------------------------------------------------|

Chorus

e|---------------------------------------------------------------|
B|---1414-12119--------------------------------------------------|
G|-11----------11131615------------------------------------------|
D|---------------------------------------------------------------|
A|---------------------------------------------------------------|
E|---------------------------------------------------------------|
Tap to rate this tab
 
# A B C D E F G H I J K L M N O P Q R S T U V W X Y Z