Song name
# A B C D E F G H I J K L M N O P Q R S T U V W X Y Z

Rihanna - Stay tab

Intro and verse:
e|-------------------------------------------------------------------------------------||
B|---1----1----1----3----1----1----1----1----1----1----1----1----1----1----1----1------||
G|---0----0----0----2----2----2----2----0----2----2----2----0----2----2----2----0------||
D|---2----2----2----0----2----2----2----2----2----2----2----2----2----2----2----2------||
A|---3-------------------0-------------------0-------------------0---------------------||
E|-------------------------------------------------------------------------------------||  
x2 intro x4 verse 1


Pre-Chorus
e|-------------------------------------------------------------------------------------|
B|---1----1----1----1----3----3----3----3----1----1----1----1----1----1----1----1------|
G|---2----2----2----2----2----2----2----2----2----2----2----2----2----2----2----2------|
D|---3----3----3----3----0----0----0----0----2----2----2----2----2----2----2----2------|
A|---3---------------------------------------0----------------------------------0------|
E|-------------------------------------------------------------------------------------|

e|-------------------------------------------------------------------------------------|
B|---1----1----1----1----3----3----3----3----3----3----3----3----3----3----3----3------|
G|---2----2----2----2----2----2----2----2----0----0----0----0----0----0----0----0------|
D|---3----3----3----3----0----0----0----0----0----0----0----0----0----0----0----0------|
A|---3---------------------------------------------------------------------------------|
E|-------------------------------------------3-----------------------------------------|


Chorus
e|-------------------------------------------------------------------------------------||
B|---1----1----1----1----3----3----3----3----1----1----1----1----1----1----1----1------||
G|---0----0----0----0----2----2----2----2----2----2----2----2----2----2----2----2------||
D|---2----2----2----2----0----0----0----0----2----2----2----2----3----3----3----3------||
A|---3-------------------0-------------------0-------------------3---------------------||
E|-------------------------------------------------------------------------------------||   x2

e|-------------------------------------------------------------------------------------|
B|---1----1----1----3----1----1----1----1----1----1----1----1----1----1----1----1------|
G|---0----0----0----2----2----2----2----0----2----2----2----0----2----2----2----0------|
D|---2----2----2----0----2----2----2----2----2----2----2----2----2----2----2----2------|
A|---3-------------------0-------------------0-------------------0---------------------|
E|-------------------------------------------------------------------------------------|


Verse 2
e|-------------------------------------------------------------------------------------||
B|---1----1----1----3----1----1----1----1----1----1----1----1----1----1----1----1------||
G|---0----0----0----2----2----2----2----0----2----2----2----0----2----2----2----0------||
D|---2----2----2----0----2----2----2----2----2----2----2----2----2----2----2----2------||
A|---3-------------------0-------------------0-------------------0---------------------||
E|-------------------------------------------------------------------------------------||   x2


Pre-Chorus
e|-------------------------------------------------------------------------------------|
B|---1----1----1----1----3----3----3----3----1----1----1----1----1----1----1----1------|
G|---2----2----2----2----2----2----2----2----2----2----2----2----2----2----2----2------|
D|---3----3----3----3----0----0----0----0----2----2----2----2----2----2----2----2------|
A|---3---------------------------------------0----------------------------------0------|
E|-------------------------------------------------------------------------------------|

e|-------------------------------------------------------------------------------------|
B|---1----1----1----1----3----3----3----3----3----3----3----3----3----3----3----3------|
G|---2----2----2----2----2----2----2----2----0----0----0----0----0----0----0----0------|
D|---3----3----3----3----0----0----0----0----0----0----0----0----0----0----0----0------|
A|---3---------------------------------------------------------------------------------|
E|-------------------------------------------3-----------------------------------------|


Chorus
e|-------------------------------------------------------------------------------------||
B|---1----1----1----1----3----3----3----3----1----1----1----1----1----1----1----1------||
G|---0----0----0----0----2----2----2----2----2----2----2----2----2----2----2----2------||
D|---2----2----2----2----0----0----0----0----2----2----2----2----3----3----3----3------||
A|---3-------------------0-------------------0-------------------3---------------------||
E|-------------------------------------------------------------------------------------||   x2

e|-------------------------------------------------------------------------------------|
B|---1----1----1----3----1----1----1----1----1----1----1----1----1----1----1----1------|
G|---0----0----0----2----2----2----2----0----2----2----2----0----2----2----2----0------|
D|---2----2----2----0----2----2----2----2----2----2----2----2----2----2----2----2------|
A|---3-------------------0-------------------0-------------------0---------------------|
E|-------------------------------------------------------------------------------------|


Bridge
e|-------------------------------------------------------------------------------------|
B|---1----1----1----1----3----3----3----3----1----1----1----1----1----1----------------|
G|---2----2----2----2----2----2----2----2----2----2----2----2----2----2----0----0------|
D|---3----3----3----3----0----0----0----0----2----2----2----2----2----2----2----2------|
A|---3-------------------0-------------------0-----------------------------2----2------|
E|-------------------------------------------------------------------------------------|

e|-------------------------------------------------------------------------------------|
B|---1----1----1----1----3----3----3----3----1----1----1----1----1----1----1----1------|
G|---2----2----2----2----2----2----2----2----2----2----2----2----2----2----2----2------|
D|---3----3----3----3----0----0----0----0----2----2----2----2----2----2----2----2------|
A|---3-------------------0-------------------0----------------------------------0------|
E|-------------------------------------------------------------------------------------|

e|-------------------------------------------------------------------------------------|
B|---1----1----1----1----3----3----3----3----3----3----3----3----3----3----3----3------|
G|---2----2----2----2----2----2----2----2----0----0----0----0----0----0----0----0------|
D|---3----3----3----3----0----0----0----0----0----0----0----0----0----0----0----0------|
A|---3---------------------------------------------------------------------------------|
E|-------------------------------------------3-----------------------------------------|

Pre-Chorus
e|-------------------------------------------------------------------------------------|
B|---1----1----1----1----3----3----3----3----1----1----1----1----1----1----1----1------|
G|---2----2----2----2----2----2----2----2----2----2----2----2----2----2----2----2------|
D|---3----3----3----3----0----0----0----0----2----2----2----2----2----2----2----2------|
A|---3---------------------------------------0----------------------------------0------|
E|-------------------------------------------------------------------------------------|

e|-------------------------------------------------------------------------------------|
B|---1----1----1----1----3----3----3----3----3----3----3----3----3----3----3----3------|
G|---2----2----2----2----2----2----2----2----0----0----0----0----0----0----0----0------|
D|---3----3----3----3----0----0----0----0----0----0----0----0----0----0----0----0------|
A|---3---------------------------------------------------------------------------------|
E|-------------------------------------------3-----------------------------------------|

Outro
e|-------------------------------------------------------------------------------------||
B|---1----1----1----1----3----3----3----3----1----1----1----1----1----1----1----1------||
G|---0----0----0----0----2----2----2----2----2----2----2----2----2----2----2----2------||
D|---2----2----2----2----0----0----0----0----2----2----2----2----3----3----3----3------||
A|---3-------------------0-------------------0-------------------3---------------------||
E|-------------------------------------------------------------------------------------||   x5
maybe play the F a few more times at the end
Tap to rate this tab
# A B C D E F G H I J K L M N O P Q R S T U V W X Y Z