Song name
# A B C D E F G H I J K L M N O P Q R S T U V W X Y Z

Rihanna - Rehab tab

-------------------------------------------------------------------------------
                             Rehab - Rihanna
-------------------------------------------------------------------------------
Tabbed by: rusita boeva
E-mail: roosu@abv.bg

Tuning:

e|---------0-----------------------------------------------------------------|
B|---------0-0h1----------1-3p1--------0h1-0---------------------------------|
G|-------2--------------0------------0-------0--------2----------------------|
D|-----2--------------2------------0----------------3------------------------|
A|---0------------0-3-----------------------------3--------------------------|
E|-------------------------------3--------------1----------------------------| 

************************************

| /   slide up
| \   slide down
| h   hammer-on
| p   pull-off
| ~   vibrato
| +   harmonic
| x   Mute note
| b   Bend
| pb  Pre-bend
| br  Bend release
| pbr Pre-bend release
| brb Bend release bend

************************************
Tap to rate this tab
 
# A B C D E F G H I J K L M N O P Q R S T U V W X Y Z