Song name
# A B C D E F G H I J K L M N O P Q R S T U V W X Y Z

Rihanna - Ps Im Still Not Over You tab

PS (Im still not over you)
by Rihanna
Tabbed By PhranChise
Standard Tuning

I think this is how you play it not 100% sure
You can play it with and without the capo dnt really matter

In relation without capo
e|---4-4--4---4-7-7---4-4-4-6-7-6----------4-4--4-4-7-7---4-4-4-|
B|---4-5------7-7-7---4-5---------7-7-7----4-5----7-7-7---4-5---|
G|----------------------------------6-6-------------------------|
D|--------------------------------------------------------------|
A|--------------------------------------------------------------|
E|-4--------4-------4--------------------4--------------4-------|

In relation with Capo on 4th fret
e|---0-0--0---0-3-3---0-0-0-2-3-2----------0-0--0-0-3-3---0-0---0-|
B|---0-1------3-3-3---0-1---------3-3-3----0-1----3-3-3---0-1-----|
G|----------------------------------2-2---------------------------|
D|----------------------------------------------------------------|
A|----------------------------------------------------------------|
E|-0--------0-------0--------------------0--------------0---------|
Tap to rate this tab
# A B C D E F G H I J K L M N O P Q R S T U V W X Y Z