Guitaretab - guitar tabs
Song name
# A B C D E F G H I J K L M N O P Q R S T U V W X Y Z

Rihanna - Hate That I Love You tab

Rihanna and Neyo - Hate That I Love You
Tabbed by: Alejandro Manzano (of Boyce Avenue)

www.myspace.com/boyceavenue

video of me playing/singing it:
http://www.youtube.com/watch?v=gQhi6ycqncw

Key of F# (G down  step)

Tuning: D# G# C# F# A# D# (Standard: down  step)

^ = hammer on
X = mute

Intro:
-3---0^2-2-3---3---3---3---0^2-2-3---3---3-|
-3---3---3-3---3---1---3---3---3-3---3---1-|
-0---2---2-2---2---0---0---2---2-2---2---0-|
-2---0---0-0---0---2---2---0---0-0---0---2-|
-3---0---0-0---2---0---3---0---0-0---2---0-|
-------------------------------------------|

-3---0^2-2-3---3---3---3---0^2-2-3---3-|
-3---3---3-3---3---1---3---3---3-3---1-|
-0---2---2-2---2---0---0---2---2-2---0-|
-2---0---0-0---0---2---2---0---0-0---2-|
-3---0---0-0---2---0---3---0---0-0---0-|
---------------------------------------|


Verse 1 and 2: (palm mute)
-3---0^2-2-3---3---3---3---0^2-2-3---3-----3---0^2-2-3-|
-3---3---3-3---3---1---3---3---3-3---1-----3---3---3-3-|
-0---2---2-2---2---0---0---2---2-2---0-----0---2---2-2-|
-2---0---0-0---0---2---2---0---0-0---2-----2---0---0-0-|
-3---0---0-0---2---0---3---0---0-0---0-----3---0---0-0-|
-------------------------------------------------------|
[ Tab from: http://www.guitaretab.com/r/rihanna/89451.html ]
Pre-chorus: (slight palm mute)
-0---0^2-2-3---3---3---3---0^2-2-3---3-----3---0^2-2-3-|
-3---3---3-3---3---1---3---3---3-3---1-----3---3---3-3-|
-0---2---2-2---2---0---0---2---2-2---0-----0---2---2-2-|
-4---0---0-0---0---2---2---0---0-0---2-----2---0---0-0-|
-3---0---0-0---2---0---3---0---0-0---0-----3---0---0-0-|
-------------------------------------------------------|

Chrous:
-3---0^2-2-3---3---3---3---0^2-2-3---3---3-|
-3---3---3-3---3---1---3---3---3-3---3---1-|
-0---2---2-2---2---0---0---2---2-2---2---0-|
-2---0---0-0---0---2---2---0---0-0---0---2-|
-3---0---0-0---2---0---3---0---0-0---2---0-|
-------------------------------------------|

-3---0^2-2-3---3---3---3---0^2-2-3---3-----3---0^2-2-3-|
-3---3---3-3---3---1---3---3---3-3---1-----3---3---3-3-|
-0---2---2-2---2---0---0---2---2-2---0-----0---2---2-2-|
-2---0---0-0---0---2---2---0---0-0---2-----2---0---0-0-|
-3---0---0-0---2---0---3---0---0-0---0-----3---0---0-0-|
-------------------------------------------------------|


Bridge:
-0---3---0---2---0---3-------3-------0-|
-1---3---0---3---1---3---0-0-1---0-0-1-|
-2---0---0---2---2---0---0-2-0---0-2-2-|
-3---2---2---4---3---2---2-0-2---2-0-3-|
-3---2---3---2---3---2---3-2-0---3-2-3-|
-----0---------------0-----------------|

-3---2---3---3---3---2---3---3---3---2-|
-3---3---3---1---3---3---3---1---3---3-|
-0---2---2---0---0---2---2---0---0---2-|
-2---0---0---2---2---0---0---2---2---0-|
-3---0---2---0---3---0---2---0---3---0-|
---------------------------------------|

Outro:
-3-----2-----0-----2-----3-|
-3-----3-----3-----3-----3-|
-0-----0-----0-----0-----0-|
-x-----x-----2-----4-----2-|
-3-----3-----3-----3-----3-|
---------------------------|
Related for Hate That I Love You tab