Song name
# A B C D E F G H I J K L M N O P Q R S T U V W X Y Z

Rihanna - Umbrella Remix tab

Help us improve GuitareTab! Take a short survey!
----------------------------------------------------------------------------
			     Umbrella (Travis Barker Remix) - Rihanna
----------------------------------------------------------------------------

Tabbed by: [sam]

Tuning: standard

Verse (Don't play the C# at the end of the second verse)
e|-------------------------------------------------------------------------|
B|-------------------------------------------------------------------------|
G|-------6-----------------------------------------------------------------|
D|--4----6----3----8-------------------------------------------------------|
A|--4----4----3----8-------------------------------------------------------|
E|--2---------1----6-------------------------------------------------------|
x2

"You had my heart... / Baby cos in the dark..."

"These fancy things... / When the war...


Pre Chorus (Before 1st & 3rd Chorus)
e|-------------------------------------------------------------------------|
B|-------------------------------------------------------------------------|
G|-------------------------------------------------------------------------|
D|--4----------------------------------------------------------------------|
A|--4----------------------------------------------------------------------|
E|--2----------------------------------------------------------------------|

"Because"


Pre Chorus (Before 2nd Chorus)
e|-------------------------------------------------------------------------|
B|-------------------------------------------------------------------------|
G|-------------------------------------------------------------------------|
D|--8--3--4----------------------------------------------------------------|
A|--8--3--4----------------------------------------------------------------|
E|--6--1--2----------------------------------------------------------------|

"Because"


Chorus
e|-------------------------------------------------------------------------|
B|-------------------------------------------------------------------------|
G|--------------------6666666666666666-------------------------------------|
D|--4444444444444444--6666666666666666--6666666666666666--8888888888888888-|
A|--4444444444444444--4444444444444444--6666666666666666--8888888888888888-|
E|--2222222222222222--------------------4444444444444444--6666666666666666-|
x2

"When the sun shines... / Take an oath..."


Post Chorus (After 1st chorus)
e|-------------------------------------------------------------------------|
B|-------------------------------------------------------------------------|
G|-------6-----------------------------------------------------------------|
D|--4----6----3----8-------------------------------------------------------|
A|--4----4----3----8-------------------------------------------------------|
E|--2----4----1----6-------------------------------------------------------|
x2

"You can stand under my umbrella ella ella eh eh eh. Under my umbrella ella ella eh eh eh"


Post Chorus (After 2nd & 3rd chorus)
e|-------------------------------------------------------------------------|
B|-------------------------------------------------------------------------|
G|--------------------6666666666666666-------------------------------------|
D|--4444444444444444--6666666666666666--3333333333333333--8888888888888888-|
A|--4444444444444444--4444444444444444--3333333333333333--8888888888888888-|
E|--2222222222222222--4444444444444444--1111111111111111--6666666666666666-|
x2

"You can stand under my umbrella ella ella eh eh eh. Under my umbrella ella ella eh eh eh"


Bridge
e|-------------------------------------------------------------------------|
B|-------------------------------------------------------------------------|
G|--4---------6--------4---------------------------------------------------|
D|--4----4----6--------4----4----3-----------------------------------------|
A|--2----4----4--------2----4----3-----------------------------------------|
E|-------2------------------2----1-----------------------------------------|

"You can run..."


Final Chorus
e|-------------------------------------------------------------------------|
B|-------------------------------------------------------------------------|
G|--------------------6666666666666666-------------------------------------|
D|--4444444444444444--6666666666666666--3333333333333333--8888888888888888-|
A|--4444444444444444--4444444444444444--3333333333333333--8888888888888888-|
E|--2222222222222222--4444444444444444--1111111111111111--6666666666666666-|
x2

"When the sun shines... / Take an oath..."


Verse
Pre Chorus (1st & 3rd)
Chorus
Post Chorus (1st)
Verse
Pre Chorus (2nd)
Chorus
Post Chorus (2nd & 3rd)
Bridge
Pre Chorus (1st & 3rd)
Chorus
Post Chorus (2nd & 3rd)


Thats all, hope you like it. Any comments welcome :)

============================================================================
Related for Umbrella Remix tab