Song name
# A B C D E F G H I J K L M N O P Q R S T U V W X Y Z

Rikk Agnew - Oc Life tab

Rikk Agnew
O.C. Life

Original song from his solo album "All By Myself"
Later Covered by bands such as D.I. and the Adolescents.



Intro..
Play 2x
e|-----------------------------------------------------|
B|-----------------------------------------------------|
G|-6---------9----11----9----7----------------------7--|
D|-6----6----9----11----9----7----7--9----9----4----7--|
A|-4----6----7----9-----7----5----7--9----9----4----5--|
E|------4-------------------------5--7----7----2-------|
   8x   4x   4x   8x    4x   4x   1x 1x   4x   4x   4x 


Verse..

Guitar 1
Play 6x
e|-----------------------------------------------------|
B|-----------------------------------------------------|
G|-6----9----8--------------6--------------------------|
D|-6----9----8----9----8----6--------------------------|
A|-4----7----6----9----8----4--------------------------|
E|----------------7----6-------------------------------|
   8x   4x   4x   4x   4x   8x

Guitar 2
Play 1x
e|-9---------------------------------------------------|
B|-----------------------------------------------------|
G|-6---------------------------------------------------|
D|-----------------------------------------------------|
A|-----------------------------------------------------|
E|-----------------------------------------------------|
   24x

Play 1x
e|-14----------------13--------------------------------|
B|-----------------------------------------------------|
G|-11----------------10--------------------------------|
D|-----------------------------------------------------|
A|-----------------------------------------------------|
E|-----------------------------------------------------|
   8x                let ring out

Chorus..
Play 2x
e|-----------------------------------------------------|
B|-----------------------------------------------------|
G|-6---------9----11----9----7----------------------7--|
D|-6----6----9----11----9----7----7--9----9----4----7--|
A|-4----6----7----9-----7----5----7--9----9----4----5--|
E|------4-------------------------5--7----7----2-------|
   8x   4x   4x   8x    4x   4x   1x 1x   4x   4x   4x 


Break/Solo
Play 2x...

Guitar 1
e|-----------------------------------------------------|
B|-----------------------------------------------------|
G|-6--------7--------9--------11-------7---------------|
D|-6--------7--------9--------11-------7---------------|
A|-4--------5--------7--------9--------5---------------|
E|-----------------------------------------------------|
   16x      16x      16x      16x      2x

Guitar 2
e|-----------------------------------------------------|
B|-12-14-12-14-12-14-12-14-12-14-12-14-12-14-12-14-----|
G|-----------------------------------------------------|
D|-----------------------------------------------------|
A|-----------------------------------------------------|
E|-----------------------------------------------------|

e|-------------------------------------------------14b-|
B|-12h14p12h14-------12-14-12-14-12-14-12-14-12-14-----|
G|-------------13-14-----------------------------------|
D|-----------------------------------------------------|
A|-----------------------------------------------------|
E|-----------------------------------------------------|

Verse...
Chorus..
Break/Solo..

Outro
Guitar 1
same as Break..

Guitar 2
last 2x
e|-----------------------------------------------------|
B|-----------------------------------------------------|
G|-6----11----6----7----11----7----8----11---13----11--|
D|--------------------------------------11---13----11--|
A|-4----9-----4----5----9-----5----6----9----11----9---|
E|-----------------------------------------------------|

End on a9



Any Comments E-Mail E_Town_Punk@hotmail.com

Artist: http://en.wikipedia.org/wiki/Rikk_Agnew
Album:  http://www.amazon.com/All-Myself-Rikk-Agnew/dp/B00007FE2S/ref=sr_1_1?
ie=UTF8&s=music&qid=1242340003&sr=1-1
Tap to rate this tab
 
# A B C D E F G H I J K L M N O P Q R S T U V W X Y Z