Song name
# A B C D E F G H I J K L M N O P Q R S T U V W X Y Z

Rilo Kiley - Silver Lining tab

Lead Guitar (Blake Sennett)

Intro
|-15/17-15/12-12-12/10----------|-----------------------------------||
|-15/17-15/12-12-12/10-10/12----|----12-13-13/15-13-12--------------||
|----------------------------x3-|----12-14-14/16-14-12--------------||
|-------------------------------|-----------------------------------||
|-------------------------------|-----------------------------------||
|-------------------------------|-----------------------------------||

Verse
|-15-----12-----15-----12-----15-----12-----------------------------||
|-------------------------------------------13-----12---------------||
|-------------------------------------------------------------------||
|-------------------------------------------------------------------||
|-------------------------------------------------------------------||
|-------------------------------------------------------------------||

|-15------12-----15-----12-----15-----12----------------------------||
|---15------12-----15-----12-----15-----12---13------------12-15----||
|------12-----12-----12-----12-----12-----12---12----12-14----------||
|-------------------------------------------------14----------------||
|-------------------------------------------------------------------||
|-------------------------------------------------------------------||

Chorus
|-19-19-19-15-15h17-15----|-19-19-19-15-15h17-15-15h17----15--------||
|-------------------------|----------------------------17-----------||
|----------------------x2-|-----------------------------------------||
|-------------------------|-----------------------------------------||
|-------------------------|-----------------------------------------||
|-------------------------|-----------------------------------------||

Transition
|-------------------------------------------------------------------||
|------12-13-13/15-13-12--------------------------------------------||
|------12-14-14/16-14-12--------------------------------------------||
|-------------------------------------------------------------------||
|-------------------------------------------------------------------||
|-------------------------------------------------------------------||

Verse
|-15------12-----15-----12-----15-----12----------------------------||
|---15------12-----15-----12-----15-----12---13------------12-15----||
|------12-----12-----12-----12-----12-----12---12----12-14----------||
|-------------------------------------------------14----------------||
|-------------------------------------------------------------------||
|-------------------------------------------------------------------||

Chorus
|-19-19-19-15-15h17-15----|-19-19-19-15-15h17-15-15h17----15--------||
|-------------------------|----------------------------17-----------||
|----------------------x2-|-----------------------------------------||x2
|-------------------------|-----------------------------------------||
|-------------------------|-----------------------------------------||
|-------------------------|-----------------------------------------||

Alt Chorus x2
|-19-19-19-15-15h17-15------20-20-20-19-15-17-----------------------||
|-------------------------------------------------------------------||
|-------------------------------------------------------------------||
|-------------------------------------------------------------------||
|-------------------------------------------------------------------||
|-------------------------------------------------------------------||

|-19-19-19-15-15h17-15-15h17----15----------------------------------||
|----------------------------17-------------------------------------||
|-------------------------------------------------------------------||
|-------------------------------------------------------------------||
|-------------------------------------------------------------------||
|-------------------------------------------------------------------||

Intro Riff
|-15/17-15/12-12-12/10----------|-----------------------------------||
|-15/17-15/12-12-12/10-10/12----|----12-13-13/15-13-12--------------||
|----------------------------x3-|----12-14-14/16-14-12--------------||
|-------------------------------|-----------------------------------||
|-------------------------------|-----------------------------------||
|-------------------------------|-----------------------------------||

Verse (no guitar)

Verse
|-15------12-----15-----12-----15-----12----------------------------||
|---15------12-----15-----12-----15-----12---13------------12-15----||
|------12-----12-----12-----12-----12-----12---12----12-14----------||
|-------------------------------------------------14----------------||
|-------------------------------------------------------------------||
|-------------------------------------------------------------------||

Chorus
|-19-19-19-15-15h17-15----|-19-19-19-15-15h17-15-15h17----15--------||
|-------------------------|----------------------------17-----------||
|----------------------x2-|-----------------------------------------||x2
|-------------------------|-----------------------------------------||
|-------------------------|-----------------------------------------||
|-------------------------|-----------------------------------------||

Alt Chorus x2
|-19-19-19-15-15h17-15------20-20-20-19-15-17-----------------------||
|-------------------------------------------------------------------||
|-------------------------------------------------------------------||
|-------------------------------------------------------------------||
|-------------------------------------------------------------------||
|-------------------------------------------------------------------||

|-19-19-19-15-15h17-15-15h17----15-----------repeat to end----------||
|----------------------------17-------------------------------------||
|-------------------------------------------------------------------||
|-------------------------------------------------------------------||
|-------------------------------------------------------------------||
|-------------------------------------------------------------------||

Tap to rate this tab
 
# A B C D E F G H I J K L M N O P Q R S T U V W X Y Z