Song name
# A B C D E F G H I J K L M N O P Q R S T U V W X Y Z

Rilo Kiley - The Frug tab

Artist: Rilo Kiley
Song: The Frug
Tabbed by: karlh07
Email: karlh07@gmail.com

Song structure:
Intro
Verse
Chorus
Verse
Chorus
Mod Verse
Combine Modified verse and Chorus
Verse only 4x (Same as intro)


Intro
(Played 4x, and on final repeat let the A chord ring out.)
e-------------------------------------|
B-------------------------------------|
G-------------------------------------|
D------7--7--7------------------------|
A----4/5--5--5--7----7-7-7------------|
E---------------4--4/5-5-5------------|


Verse (Played 8x)
e-------------------------------------|
B-------------------------------------|
G-------------------------------------|
D------7--7--7------------------------|
A----4/5--5--5--7----7-7-7------------|
E---------------4--4/5-5-5------------|

However, on the 4th repeat of the verse, it changes a bit: (Only changes for the fourth 
5th 6th 7th are normal.)
e---------------------------------------|
B---------------------------------------|
G---------------------------------------|
D------7--7--7--------------------------|
A----4/5--5--5--7----7---7-7-7-7--------|
E---------------4--4/5--5-5-5-5---------|

On 8th and final repeat, let the A chord ring out.


Chorus (4x)
e---5----5--7---12-12--12-12-----------------|
B---7----7--9---14-14--14-14-----------------|
G---7----7--9---14-14--14-14-----------------|
D---7----7--9---14-14--14-14-----------------|
A---5----5--7---12-12--12-12-----------------|
E--------------------------------------------|


Modified Verse (4x)
e---------------------------------------|
B----------7-----------------5----------|
G--------7----7---7--------6---6---6----|
D------7--------7--------7-------7------|
A----5----------------------------------|
E----------------------5----------------|
Tap to rate this tab
# A B C D E F G H I J K L M N O P Q R S T U V W X Y Z